Eraserheads - Tamagotchi Baby Chords & Tabs

 

Tamagotchi Baby Chords & Tabs

Eraserheads Chords & Tabs

Version: 1 Type: Bass Tab 0 ratings
1 star 2 stars 3 stars 4 stars 5 stars
comments

Tamagotchi Baby Bass Tab

Song: Tamagotchi Baby
Artist/Band: Eraserheads
Album: Aloha Milkyway
Submitted by: bogey

Intro:

G|---------------------\ ----------------|
D|---------------------/ 3x -------------|
A|---9-10-------------/ --------9-10-----| 
E|---------2-3-1-2--/-------------------|

Verse:

(Do this on every stanza)
G|----------------------------|
D|----------------------------|
A|----------------------------|
E|----5-5-0-5-3-3-0-2h3-----|

G|--------------------------------------------------|
D|--------------------------------------------------|
A|--------------------------------------------------|
E|----5-5--0-5-3-3-0-2h3-----5-5--0-5-3--0-0-0-3---|
   Turn it on like a flashlight
[ Tab from: http://www.guitartabs.cc/tabs/e/eraserheads/tamagotchi_baby_btab.html ]
G|---------------------------------------------------|
D|---------------------------------------------------|
A|---------------------------------------------------|
E|----5-5-0-5-3-3-0-2h3----5-5-0-5-3-3-0-2h3-----|
    Satisfy electric appetite

Refrain:

G|---------------------------------|
D|---------------------------------|
A|-------------4-------------------| 3x
E|----5-5--0-3---5-3-0-0-0-0-3-----|

G|-----------------------------------|
D|-----------------------------------|
A|-------------4----9-10-------------|
E|----5-5--0-3---5-------2-3-1-2----|

Chorus:

G|--------------------------------------|
D|--------------------------------------|
A|--------------------------------------| 4x
E|----5-5--0-3h5-3h5-3-3--0-2h3-2h3-----|

Adlib:

G|--------------------------------------|
D|--------------------------------------|
A|--------------------------------------| 4x
E|----5-5--0-3h5-3h5-3-3--0-2h3-2h3-----|



Ayan...i-apply nyo na lang sa buong kanta yan, kasi paulit-ulit lang yan...i-rate nyo na lang...
Comments