Eraserheads - Shirley Chords & Tabs

 

Shirley Chords & Tabs

Eraserheads Chords & Tabs

Version: 1 Type: Bass Tab

Shirley Bass Tab

-------------------------------------------------------------------------------
			     shirley - eraserheads
-------------------------------------------------------------------------------

Tabbed By : kris caudal
e-mail: kcaudal2_20sh@Yahoo.com

Tuning:standard

1st and 2nd verse; 1st chorus
G|---------------------------------------------------------------------------|
D|---------------------------------------------------------------------------|
A|-------------9999-----5555-------------------------------------------------|
E|--55----999----------------------------------------------------------------|


adlib
G|---------------------------------------------------------------------------|
D|---------------------------------------------------------------------------|
A|-00---333--222----101010---------------------------------------------------|
E|---------------------------------------------------------------------------|

[ Tab from: http://www.guitartabs.cc/tabs/e/eraserheads/shirley_btab.html ]
bridge
G|---------------------------------------------------------------------------|
D|---------------------------------------------------------------------------|
A|---4-44-4-44---2-22-2-22--4-44-4-44--5-55-5-55-5-55-7-77-7-77-7-77---------|
E|---------------------------------------------------------------------------|


bass lines....
mga tsong... timing lng kelangan d2
ulit-ulitin lng to
G|---------------------------------------------------------------------------|
D|-7-77--6h7p6--4-44---------------------------------------------------------|
A|---------------------55--77------------------------------------------------|
E|---------------------------------------------------------------------------|

G|---------------------------------------------------------------------------|
D|-33333333-55555555---------------------------------------------------------|
A|---------------------------------------------------------------------------|
E|---------------------------------------------------------------------------|

....at sila'y mag-on na uli


last chorus:

G|---------------------------------------------------------------------------|
D|---------------------------------------------------------------------------|
A|-3-33----7-77--12-1212--8-88-----------------------------------------------|
E|---------------------------------------------------------------------------|


hehehehe!! sisiw lng yn!! dali lng yan.... kung may kulang dagdagan nyo n lng ah! kng 
mali kau n bhala... kng d nyo kaya, e-mail nyo n lng me through friendster.. 
or YM pede....