Eraserheads - Poormans Grave Chords & Tabs

 

Poormans Grave Chords & Tabs

Eraserheads Chords & Tabs

Version: 3 Type: Tab 0 ratings
1 star 2 stars 3 stars 4 stars 5 stars
comments

Poormans Grave Tab

   
Song: Poorman's Grave
Artist/Band: Eraserheads
Submitted by: bogey

Intro: 

E|---------------------------------------|
B|---------------------------------------|
G|---------------------------------------|
D|-----------2-0-------------------------|
A|--0-00---3-----3-2---3-------5---------| 2x
E|-------------------1---1---3---3-------|

Then...

E|---------------|
B|---------------|
G|---------------|
D|-----6---------|
A|-----6---------|
E|-----4---------|

E|----------------------------------------------------------|
B|----------------------------------------------------------|
G|----------------------------------------------------------|
D|-----7--------3----5--------7--------3----5-----6---------|
A|-----7--------3----5--------7--------3----5-----6---------|
E|-----5--------1----3--------5--------1----3-----4---------|

Verse:

E|----------------------------------------------------------|
B|----------------------------------------------------------|
G|----------------------------------------------------------|
D|-----7--------3----5--------7--------3----5---------------|
A|-----7--------3----5--------7--------3----5---------------|
E|-----5--------1----3--------5--------1----3---------------|
   
E|----------------------------------------------------------|
B|----------------------------------------------------------|
G|----------------------------------------------------------|
D|-----7--------3----5--------7--------3----5----6----------|
A|-----7--------3----5--------7--------3----5----6----------|
E|-----5--------1----3--------5--------1----3----4----------|

Guitar 2: 
[ Tab from: http://www.guitartabs.cc/tabs/e/eraserheads/poormans_grave_tab_ver_3.html ]
E|--8-5------------8-5-----------8-5------------------------|
B|-------0h2-0---------0h2-0-2-------0h2-0------------------|
G|-------------2---------------------------2----------------|
D|----------------------------------------------------------|
A|----------------------------------------------------------|
E|----------------------------------------------------------|

(Repeat verse chords)

Refrain:

E|-------------------------------------------------------------|
B|-------------------------------------------------------------|
G|---------------------------5---------------------------------|
D|--2-------7-------3--------5------2-------7------3------5----|
A|--2-------7-------3--------3------2-------7------3------5----|
E|----------5-------1-----------------------5------1------3----|

Chorus:
        C      F          C       F   G
E|-------------------------------------------------------------|
B|-------------------------------------------------------------|
G|------5-----------------5------------------------------------|
D|------5------3----------5-------3---5------------------------|
A|------3------3----------3-------3---5------------------------| 2x
E|-------------1------------------1---3------------------------|
    Oh honey when I die, fix me up with a coat and tie...

        C    G    F    
E|--------------------------------------------------------------|
B|--------------------------------------------------------------|
G|---5-------------------------------5--------------------------|
D|---5----5-----------3--------------5----------5---------3-----|
A|---3----5-----------3--------------3----------5---------3-----|
E|--------3-----------1-------------------------3---------1-----|
    Oh, honey when I die , give me a bed of roses where I can lie...

Verse 2:
Do verse chords

Repeat refrain
Repeat chorus 2x
Comments