Eraserheads - Pare Ko Chords & Tabs

 

Pare Ko Chords & Tabs

Eraserheads Chords & Tabs

Version: 3 Type: Tab 0 ratings
1 star 2 stars 3 stars 4 stars 5 stars
comments

Pare Ko Tab

   
Verse 1:
           D             A        Bm
There's a fruitcake for everybody
A            G          Fm      Em A
There's a fuitcake for everyone
           D              A       Bm
There are "being sad" to every story
A      G          Fm        Em  A
If you decide to have some fun

Chorus:
    D    A                Bm  A
Take a bite it's alright
               G                         Bb    C
There's some brandy and star margarine
    D               A
To make it bright
    D      A              Bm  A
Take a bite it's alright
              G                                         Asus4
A little lovin and some fruit to bake life is a
  A
Piece of

Interlude:
D-C-G
Cake

Verse 2:


-----------------3--------------0-----------------2---------------0-----------------3--------------2--|
-----------------2--------------2-----------------3---------------2-----------------3--------------2--|
--------2-----------------------2-----------------4---------------2-----------------0--------------2--|
----0----------------------2-----------------4----------------2---------------------------------------|
-----------------------0----------------2------------------0--------------------2---------------4-----|
------------------------------------------------------------------------------3--------------2--------|

--------------------------------|
-----------------------3--3--2--|
-----------------------2--2--2--|
-----------------------2--2--2--|
-------------------0------------|
---0----2----3------------------|


-------------------3-------------0-----------------2---------------0-----------------3----------2--|
-------------------2-------------2-----------------3---------------2-----------------3----------2--|
--------2------------------------2-----------------4---------------2-----------------0----------2--|
----0-----------------------2-----------------4---------------2------------------------------------|
------------------------0----------------2----------------0-----------------------2-----------4----|
-------------------------------------------------------------------------------3------------2------|

[ Tab from: http://www.guitartabs.cc/tabs/e/eraserheads/pare_ko_tab_ver_3.html ]
---------------------------------------------|
---------------------------------------------|
---------------------------------------------|
---------------------------------------------|
---------------------------0----2----4----0--|
-0-----2----3----4---------------------------|

Repeat Chorus

Interlude: E-D

Bridge: E-D-E-D-E-D

Ad Lib: F-G-D-F-G-D-C

---------------------------------------------------------------------------------------------------------|
-------------------------------------6----6--------------------------------------8----8---------10f--10--|
-----------------------5-----5s7----------------------------------7----7s9----------------9--------------|
------3-----5s7--------------------------------------5-----7s9-------------------------------------------|
---------------------------------------------------------------------------------------------------------|
---------------------------------------------------------------------------------------------------------|

-------15f-----------------------------------------------------------------|
------------------13-----15--13------12--13--------14--12---10-------------|
----------------------14----------14-------------12--------------------12--|
---------------------------------------------------------------------------|
---------------------------------------------------------------------------|
---------------------------------------------------------------------------|

------------------------------------------------------------------------------------------------------10-|
----------------------------------6---8---6---------------------------------------8---8------------------|
----------------------55s7------------------7--------------------7---7s9--------------9-----11----------|
-----5----5---5s7-------------------------------------5------7s9-----------------------------------------|
---------------------------------------------------------------------------------------------------------|
---------------------------------------------------------------------------------------------------------|

-----10--8-----12-----12vvvvv--|
-------------------------------|
-------------------------------|
-------------------------------|
-------------------------------|
-------------------------------|

Bridge:
	     Bb			C		Bb		     C
Stars are falling down from heaven but it's nowhere near the town
		Bb		      C		       Bb	      Fdim       A
Miracles are falling down from heaven but it's nowhere near the town.

Repeat chorus

Coda:
G			         A7sus4	  A7         D
Lovin and some fruit to bake life is a piece of cake.
Comments