Eraserheads - Minsan Chords & Tabs

 

Minsan Chords & Tabs

Eraserheads Chords & Tabs

Version: 4 Type: Tab 0 ratings
1 star 2 stars 3 stars 4 stars 5 stars
comments

Minsan Tab

   
Title: MINSAN
Artist: Eraserheads
Jhonjon Sabalboro
   D                    DM7
Minsan sa may kalayaan tayo nagkatagpuan
Em          		Gm    				D-Dsus
May mga sariling gimik at kanya-kanyang hangad sa buhay

Sa ilalim ng iisang bubong mga sikretong ibinubulong

Kahit na anong mangyari kahit na saan ka man patungo

Refrain:
	DM7   D7  			G
Ngunit ngayon kay bilis maglaho ng kahapon
Gm          D  		Gm               A
Sana'y wag kalimutan ang ating mga pinagsamahan
    F#m            G         F#m        G
At kung sakaling gipitin ay laging iisipin
D              A          G      Gm
Na minsan tayo ay naging tunay na...

Magkaibigan

(adlib)-D-DM7-D7-G Gm-D-Gm-A
	F#m-G-F#m-G
	D-A-G-Gm

e------------------------------------------------------------|
B----------------------------------------------------7h87----|
G----------------------------------------------7-7797----97--|
D------------4h54-----------------5h75---578-78--------------|
A--/5---5565-----5-------------------------------------------|
E-----------------5--5578--8887535---------------------------|

e--------------------------------------14------------15------------|
B-81010/11--10h11-10-13-11-10-8----------13-11-12-11---14-11-12-14-|
G------------------------------9-7-5-------------------------------|
D------------------------------------------------------------------|
A------------------------------------------------------------------|
E------------------------------------------------------------------|
[ Tab from: http://www.guitartabs.cc/tabs/e/eraserheads/minsan_tab_ver_4.html ]
e-14-------------15------13-14-11-11h13--13-11-9-8-11-989------------|
B----13-11-12-11----14-11-----------------------------------9h10^7-6-|
G--------------------------------------------------------------------|
D--------------------------------------------------------------------|
A--------------------------------------------------------------------|
E--------------------------------------------------------------------|

(use verse chords)
Minsan ay parang wala ng bukas sa buhay natin
Inuman hanggang sa magdamag na para bang tayo'y mauubusan
SA ilalim ng bilog ng buwan mga tiyan nati'y walang laman
Ngunit kahit na walang pera ang bawat gabi'y anong saya

(repeat refrain)
E			EM7
Minsan ay hindi mo na alam ang nangyayari
F#m			Am			     E
Kahit na anong gawin lahat ng bagay ay mayroong hangganan
	EM7   E7                  A
Dahil ngayon tayo ay nilimot ng kahapon
Am         E        Am                     B
Di na mapipilitang buhayin ang ating pinagsamahan
	G#m hold	A hold    G#m hold      A hold
Ngunit kung sakaling mapadaan baka ikaw ay aking tawagan
	E         B          A         Am
Dahil minsan tayo ay naging tunay na...
	    E-EM7-F#m-A-Am-E
Magka-ibigan

e-------------------------------------------------------|
B-------------------------------------------------------|
G-------------------------------------------------------|
D-------------------------------------------------------|
A-/7--7-9-7-11--11-12-11-9--9-8-9-9/12--12/14-14-15-19--|
E-------------------------------------------------------|


Happy 18th birthday MHONNA!!!
Itong Tab na 'to ay ginawa ko para sa'yo....
Masaya 'ko kc nakilala kita @ naging magkaklase tayo...
Salamat sa lahat ng nagawa mo...
Sana maging masaya ka sa buong buhay mo...
God Bless!!
Rock On!!!
Comments