Eraserheads - Minsan Chords & Tabs

 

Minsan Chords & Tabs

Eraserheads Chords & Tabs

Version: 2 Type: Tab 0 ratings
1 star 2 stars 3 stars 4 stars 5 stars
comments

Minsan Tab

Pare Ko by Eraserheads

Intro:
--------
-8------
----4s5-
--------
--------
--------

Before Chorus:
---10---8-7-
-8----8-----
------------
------------
------------
------------

Instrumental:
-15-----------15-15-----15s17-17--19-17-15-
-----12h15-17--------17--------------------
-------------------------------------------
-------------------------------------------
-------------------------------------------
-------------------------------------------
[ Tab from: http://www.guitartabs.cc/tabs/e/eraserheads/minsan_tab_ver_2.html ]
-17---15---12-------------------------------------------
---17---15---12-10------------------12s10---------------
-------------------12--9h12-12-9h12-------9-12-12-9-7---
------------------------------------------------------5-
--------------------------------------------------------
--------------------------------------------------------

-------------10----10-10s12-10s12-10-
------10s12-----12-------------------
-9s12--------------------------------
-------------------------------------
-------------------------------------
-------------------------------------

Before 3rd Stanza:
-------------------
-------10-10-10-12-
-9s12--------------
-------------------
-------------------
-------------------

-END-

rs_eradicator@yahoo.com
Comments