Eraserheads - Maskara Chords & Tabs

 

Maskara Chords & Tabs

Eraserheads Chords & Tabs

Version: 3 Type: Tab 0 ratings
1 star 2 stars 3 stars 4 stars 5 stars
comments

Maskara Tab

Band: Eraserheads
Song: Maskara
Tabbed by: Renz
Tuning : Standard for all
Instrument used : 3 Electric Guitars, 1.) Treble+Mid Boost Dist, 2.) Thrash+Metal Dist
7 String, 3.) Chorus Dist Lead

This is my own arrangement (For my band) so don't complain if it sounds different.

Legend
/=Slide Up
\=Slide Down
~=Let Ring/Vibrato
*=Palm Mute Specific
h=Hammer on
p=Pull Off
^=Bend
r=Release


Intro/Chorus

Guitar 1 + 2

E|-----------------------------------|
B|-----------------------------------|
G|------------------7-7-7-7-7-7-7-7--|
D|--7-7-7-7-7-7-7-7-7-7-7-7-7-7-7-7--|
A|--7-7-7-7-7-7-7-7-5-5-5-5-5-5-5-5--|
E|--5-5-5-5-5-5-5-5------------------|

Guitar 1

E|---------------------------------------|
B|---------------------------------------|
G|--5-5-5-5-5-5-5-5/10-10-9-9------------|
D|--5-5-5-5-5-5-5-5/10-10-9-9-10-10-9-9--|
A|--3-3-3-3-3-3-3-3/8--8--7-7-10-10-9-9--|
E|----------------------------8--8--7-7--|

Guitar 2

E|---------------------------------|
B|---------------------------------|
G|--5-5-5-5-5-5-5-5----------------|
D|--5-5-5-5-5-5-5-5----------------|
A|--3-3-3-3-3-3-3-3-8-8-7-7-3-3-2--|
E|------------------8-8-7-7-3-3-2--|
B|------------------6-6-5-5-1-1-0--|

Guitar 3

E|--------0-------0-------0-1-1-0-0----------|
B|--------1-----3---------1---------1-1-0-0--|
G|------0-----2---------0--------------------|
D|----2-----0---------2----------------------|
A|--0---------------3------------------------|
E|-------------------------------------------|

Guitar 1 + 2

E|---------------------------------|
B|---------------------------------|
G|---------------------------------|
D|--7-7-8-7-7-7-8-7-7-7-8-7--5--5--|
A|--7-7-8-7-7-7-8-7-7-7-8-7--5--5--|
E|--5-5-6-5-5-5-6-5-5-5-6-5--3--3--|

Guitar 3
[ Tab from: http://www.guitartabs.cc/tabs/e/eraserheads/maskara_tab_ver_3.html ]
E|------------------------------------|
B|------------------------------------|
G|------/15-------/15-------/15-------|
D|------/15-------/15-------/15-5--5--|
A|--0-0-----0-0-0-----0-0-0-----5--5--|
E|------------------------------3--3--|

Verse 1 Guitar 2 only

E|----0------|
B|------1-0--|
G|--2--------|
D|-----------|
A|-----------|
E|-----------|

Prechorus

Guitar 1

E|------------------------0---------------|
B|----------------0---0-3-----------------|
G|-----------7--5---4-------9-------------|
D|-----------7--5---4-------9--7-7-7-7-5--|
A|------3-2--5--3---2-------7--5-5-5-5-3--|
E|--1~------------------------------------|

Guitar 2

E|-----------0--------------|
B|-----------0--------------|
G|-----------1--------------|
D|-----------2--7-7-7-7-5--|
A|--5--3--2--2--5-5-5-5-3--|
E|--5--3--2--0-------------|
B|--3--1--0--x-------------|

Verse 2

Guitar 2

E|----0------|
B|------1-0--|
G|--2--------|
D|-----------|
A|-----------|
E|-----------|

Guitar 3

E|-------------------|
B|--1-1-0-0-1-1-0-1--|
G|-------------------|
D|-------------------|
A|-------------------|
E|-------------------|

Guitar Solo Verse 3 (Guitar 1 + 3)

Guitar 3

E|------8-7-5-5h7-5-5h7-8-----5-7--5-8--|
B|--0-6-------------------6-5-----------|
G|--------------------------------------|
D|--------------------------------------|
A|--------------------------------------|
E|--------------------------------------|

E|--5--8h10-8----10h12-10--------------|
B|------------10----------10-12h13-12--|
G|-------------------------------------|
D|-------------------------------------|
A|-------------------------------------|
E|-------------------------------------|

Guitar 1

E|-----------------------------------|
B|-----------------------------------|
G|----2-4--2-5----2-4-2-5--2--5h7-5--|
D|--2-----------2--------------------|
A|-----------------------------------|
E|-----------------------------------|

E|--------------------|
B|--------------------|
G|----7h9-7-----------|
D|--7-------7--9h109--|
A|--------------------|
E|--------------------|
Comments