Eraserheads - Maselang Bahaghari Chords & Tabs

 

Maselang Bahaghari Chords & Tabs

Eraserheads Chords & Tabs

Version: 1 Type: Bass Tab

Maselang Bahaghari Bass Tab

   
Maselang bahaghari
natin99
eraserheads
joshua rocha

bass intro: Am-C x4

verse 1: 

G |----------------------------------------------------------------------|
D |----------------------------------------------------------------------|
A |-55555-44444-33333-222222222-------55555-44444-33333-222222222--------|
E |----------------------------------------------------------------------|
   
G |----------------------------------------------------------------------|
D |----------------------------------------------------------------------|
A |-55555-22222-33333-77777----------------------------------------------|
E |----------------------------------------------------------------------|

repeat these 2 2x

Chorus:

G |----------------------------------------------------------------------|
D |----------------------------------------------------------------------|
A |-55555-44444-33333-222222222-------55555-44444-33333-222222222--------|
E |----------------------------------------------------------------------|

G |----------------------------------------------------------------------|
D |----------------------------------------------------------------------|
A |-55555-44444-33333-222222222-------55555-44444-33333-222222222--------|
E |----------------------------------------------------------------------|

Verse 2:
[ Tab from: http://www.guitartabs.cc/tabs/e/eraserheads/maselang_bahaghari_btab.html ]
G |----------------------------------------------------------------------|
D |----------------------------------------------------------------------|
A |-55555-44444-33333-222222222-------55555-44444-33333-222222222--------|
E |----------------------------------------------------------------------|
   
G |----------------------------------------------------------------------|
D |----------------------------------------------------------------------|
A |-55555-22222-33333-77777----------------------------------------------|
E |----------------------------------------------------------------------|

repeat these 2 2x


Chorus:

G |----------------------------------------------------------------------|
D |----------------------------------------------------------------------|
A |-55555-44444-33333-222222222-------55555-44444-33333-222222222--------|
E |----------------------------------------------------------------------|

G |----------------------------------------------------------------------|
D |----------------------------------------------------------------------|
A |-55555-44444-33333-222222222-------55555-44444-33333-2222-------------|
E |----------------------------------------------------------------------|

G |----------------------------------------------------------------------|
D |----------------------------------------------------------------------|
A |-55555-44444-33333-222222222-------55555-44444-33333-222222222--------|
E |----------------------------------------------------------------------|

G |----------------------------------------------------------------------|
D |----------------------------------------------------------------------|
A |-55555-44444-33333-222222222-------55555-44444-33333-222222222--------|
E |----------------------------------------------------------------------|

Coda:

G |----------6------------5-----------4------------3-----------|
D |----------6--6--------5--5--------4--4--------3--3----------|
A |-------7-----------6-----------5-----------4----------------|
E |----8-----------7-----------6-----------5-----------0-00----|

paki rate naman po!