Eraserheads - Magasin Chords & Tabs

 

Magasin Chords & Tabs

Eraserheads Chords & Tabs

Version: 1 Type: Bass Tab 0 ratings
1 star 2 stars 3 stars 4 stars 5 stars
comments

Magasin Bass Tab

   
|    ||                          (\
|    ||     ERASERHEADS          ( 
|____||__________________________(/
MAGASIN

chords:C-E7-Am-F  ando972003@yahoo.com

intro
1|---------------------------------|
2|---------------------------------|
3|-3-3-3-3s7-7-7-7-----------------|
4|-----------------5-5-5-5s1-1-1-1-|
        hoooo.............

verse
1|---------------------------------|
2|---------------------------------|(2x)
3|-3-3-3-3s7-7-7-7-----------------|
4|-----------------5-5-5-5s1-1-1-1-|
       nakita kita..
1|---------|
2|-3-2-----|
3|-----3---|
4|-------1-|

1|---------------------------------|
2|---------------------------------|
3|-3-3-3-3s7-7-7-7-----------------|
4|-----------------5-5-5-5s1-1-1-1-|
       naalala mo pa ba?.....
1|---------------------------------------|
2|---------------------------------------|
3|-3-3-3-3s7-7-7-7-----------------------|
4|-----------------5-5-5-5s1-1-1-1-1-1-1-|
      tinawanan pa....
chorus 

1|-----------------------------------------------------------------|
2|-----------------------------------------------------------------|(2x)
3|-3-3-3-3-3-3-3-3s7-7-7-7-7-7-7-7---------------------------------|
4|---------------------------------5-5-5-5-5-5-5-5s1-1-1-1-1-1-1-1-|

1|---------|
2|-3-2-----|
3|-----3---|
4|-------1-|

1|---------------------|
2|---------------------|
3|---------------------|
4|-8-8-8-7-7-7-5-5-5-1-|

1|---------|
2|-3-2-----|
3|-----3---|
4|-------1-|

verse2
[ Tab from: http://www.guitartabs.cc/tabs/e/eraserheads/magasin_btab.html ]
1|---------------------------------|
2|---------------------------------|
3|-3-3-3-3s7-7-7-7-----------------|
4|-----------------5-5-5-5s1-1-1-1-|

1|---------------------------------------|
2|---------------------------------------|
3|-3-3-3-3s7-7-7-7-----------------------|
4|-----------------5-5-5-5s1-1-1-1-1-1-1-|

     (repeat chorus except last line)

adlib

1|-----------------------------------------------------------------|
2|-----------------------------------------------------------------|(2x)
3|-3-3-3-3-3-3-3-3s7-7-7-7-7-7-7-7---------------------------------|
4|---------------------------------5-5-5-5-5-5-5-5s1-1-1-1-1-1-1-1-|

1|---------|
2|-3-2-----|
3|-----3---|
4|-------1-|

verse3

1|---------------------------------|
2|---------------------------------|
3|-3-3-3-3s7-7-7-7-----------------|
4|-----------------5-5-5-5s1-1-1-1-|

1|---------------------------------------|
2|---------------------------------------|
3|-3-3-3-3s7-7-7-7-----------------------|
4|-----------------5-5-5-5s1-1-1-1-1-1-1-|

   (repeat chorus 2x)

coda
nasan ka na kaya.....(no bass)

1|---------|
2|-3-2-----|
3|-----3---|
4|-------1-|

1|-----------------------------------------------------------------|
2|-----------------------------------------------------------------|(2x)
3|-3-3-3-3-3-3-3-3s7-7-7-7-7-7-7-7---------------------------------|
4|---------------------------------5-5-5-5-5-5-5-5s1-1-1-1-1-1-1-1-|

outro

1|---------------------------------|
2|---------------------------------|
3|-3-3-3-3s7-7-7-7-----------------|
4|-----------------5-5-5-5s1-1-1-1-|
         hoooo.....
Comments