Eraserheads - Kananete Chords & Tabs

 

Kananete Chords & Tabs

Eraserheads Chords & Tabs

Version: 1 Type: Tab 0 ratings
1 star 2 stars 3 stars 4 stars 5 stars
comments

Kananete Tab

Song: Kananete
Artist: Eraserheads
Submitted by: bogey

Intro: (guitar 1)

E|------------------------|
B|------------------------|
G|------------------------|
D|------------------------|
A|--5-6-5-6----5-6-----| 4x
E|--3-4-3-4----3-4-----|

(guitar 2)
E|----4-3-1----------------|
B|----------4-2-1-1h2p1----|
G|-------------------------|
D|-------------------------|
A|-------------------------|
E|-------------------------|

E|------------------------|
B|------------------------|
G|------------------------|
D|------------------------|
A|--5-6-5-6----5-6-----| 
E|--3-4-3-4----3-4-----|

Refrain: 

(guitar 1)
E|----4-3-1----------------|
B|----------4-2-1-1h2p1----|
G|-------------------------|
D|-------------------------|
A|-------------------------|
E|-------------------------|
      Sino sino sino ba?

(guitar 2)
E|---------------------------------|
B|---------------------------------|
G|----6----------------------------|
D|----6------------------6---------|
A|----4------------------6---------|
E|-----------------------4---------|
     Sino sino sino ba?

(guitar 1)
E|----4-3-1----------------|
B|----------4-2-1-1h2p1----|
G|-------------------------|
D|-------------------------|
A|-------------------------|
E|-------------------------|
      Ang nagsabing tao ka?
[ Tab from: http://www.guitartabs.cc/tabs/e/eraserheads/kananete_tab.html ]
(guitar 2)
E|---------------------------------|
B|---------------------------------|
G|----6----------------------------|
D|----6------------------6---------|
A|----4------------------6---------|
E|-----------------------4---------|
      Ang nagsabing tao ka?

(guitar 1)
E|----4-3-1----------------|
B|----------4-2-1-1h2p1----|
G|-------------------------|
D|-------------------------|
A|-------------------------|
E|-------------------------|
      Sino sino sino ba?

(guitar 2)
E|---------------------------------|
B|---------------------------------|
G|----6----------------------------|
D|----6------------------6---------|
A|----4------------------6---------|
E|-----------------------4---------|
    Ang pumatol sa tanga?

Verse:

E|---------------------------|
B|----------------------5----|
G|----------------------5----|
D|----5---6----5---6----3----| 2x
A|----5---6----5---6---------|
E|----3---4----3---4---------|

Repeat refrain

Verse 2:
(do verse chords)

Repeat refrain

Outro:

(guitar 1)
E|----4-3-1----------------|
B|----------4-2-1----------|
G|-------------------------|
D|-------------------------| 6x
A|-------------------------|
E|-------------------------|
     Sino sino sino 

(guitar 2)
E|-----------------|
B|-----------------|
G|----6------------|
D|----6------------|
A|----4------------| 6x
E|-----------------|
    Sino sino sino

E|--------------------|
B|--------------------|
G|--------------------|
D|--------6-----------|
A|--------6-----------|
E|--------4-----------|
   Sino ba

Kung mali 'to mag-e-mail na lang kayo sa 'kin...leugim_anoll@yahoo.com
Comments