Eraserheads - Kaliwete Chords & Tabs

 

Kaliwete Chords & Tabs

Eraserheads Chords & Tabs

Version: 2 Type: Tab 0 ratings
1 star 2 stars 3 stars 4 stars 5 stars
comments

Kaliwete Tab

   
Artist:Eraserheads
Title:Kaliwete
Album:Sticker Happy
Tab by:Mhonna and "2kmol" Janjun

Intro:(lead guitar)
 	A		D
e----------------|--------------------|
b----------------|-----3---3----------|
g-----2---2------|---2---4---4-2------|
d---2---4---4-2--|-0------------------|
a-0--------------|--------------------|
e----------------|--------------------|

	I
 A       D       A
Noong nagsama tayo
 A       D            A
Ay kanan ang ginamit mo
  E     D             A
Ngunit biglang natorete
      C       E     A 
Ikaw pala ay kaliwete
	
	II
  A             Dm         A
Sunod-sunod na kamalasan ang dumarating
   A           Dm          A
Hindi ko na malaman kung ano ang gagawin
  E            D         A
Sabi naman ni Rico J. Puno
    C         E        A, A-Bm-C#m-
Mag-ayos lang daw ng upo
[ Tab from: http://www.guitartabs.cc/tabs/e/eraserheads/kaliwete_tab_ver_2.html ]
Chorus:
D                    C#m
Niyaya niya kami sa kubeta
  Bm         Dm     A, A-Bm-C#m
Mata ay lumuwa sa nakita
  D                         C#m
O bakit ba ganyan buhay ng tao
(O bakit pa ba may kulay ang tao)
    B                     E		D
Mag-ingat ka na lang baka ika'y makarma ohhhh
(Hindi mo na alam kung ano-ano at sino-sino)

(Do stanza chords)
Niyaya siyang lumabas kahapon ngunit ayaw niya
Hindi niya raw mahanap ang kapares ng bra niya
Sampung oras ka kung maligo
Pati ang kaluluwa mo'y babango

(Repeat Chorus)
(Repeat I)

e--9-10-12-10 ~-0--9-10--12-12^-----|
b---------------0-------------------|
g-----------------------------------|
d-----------------------------------|
a-----------------------------------|
e-----------------------------------|

Ikaw pala'y kaliwete
Ikaw pala ay kaliwete...
Yeah!

Oi mga tol, kung may alam kaung mas tama d2,paki-post nio nmn d2 
or e-mail nio sa mn (mhonna_29@yahoo.com or junehly3@yahoo.com).
Eto ay ginawa ni Jun sa bahy ng magiging magulang nia sa future...hahahaha..
Mahal na mahal niya c mhonna!!!ETo ay remembrance nia kay mhonna kung
saka-sakaling cla ay maghihiwalay na..(sigh)...	
-monna-02
Comments