Eraserheads - Kailan Chords & Tabs

 

Kailan Chords & Tabs

Eraserheads Chords & Tabs

Version: 2 Type: Bass Tab

Kailan Bass Tab

   
Tabbed By : enzo
e-mail: johnnyblaze91761@yahoo.com
[ Tab from: http://www.guitartabs.cc/tabs/e/eraserheads/kailan_btab_ver_2.html ]
Tuning:
Intro:
G|---------------------------------------------------------------------------|
D|---------------------------------------------------------------------------|
A|-333333-999999-333333-11---------------------------------------------------|
E|---------------------------------------------------------------------------|
Verse 1: x4
G|---------------------------------------------------------------------------|
D|----------6--------5----------2--------------------------------------------|
A|-3------79-------68--------235---------------------------------------------|
E|-------------------------35------------------------------------------------|
Chorus:
G|-----------------------------------------9-10-12-10------------------------|
D|------------------------------------10h12----------------------------------|
A|-7777777-6666666-8888888-6677887788----------------------------------------|
E|---------------------------------------------------------------------------|
Verse 2 & 3: x2                             x2
G|-----------------------------------|---------------------------------------|
D|----------6-------5-----------2----|-----------6--------5----------245-----|
A|-3------79------68---------235-----|-3-------79-------68--------235--------|
E|-------------------------35--------|--------------------------35-----------|
Ad-lib: x2
G|--------------------------------|------------------------------------------|
D|----------8---------------5686--|------------10---------------------78108--|
A|-9----9-11-------5------68------|-11----11-13------------6------8-10-------|
E|---------------68---------------|--------------------7-9-------------------|

G|---------------------------------------------------------------------------|
D|-------------10------------------------------------------------------------|
A|-11-----11-13-----------6-----------------9999999--------------------------|
E|---------------------7-9----555555-999999----------------------------------|
outro: x4
G|----------------17---|-----------------------------------------------------|
D|--------18-17---18---|-----------------------------------------------------|
A|-19-19--19\18-18-----|--8~~~9~~~~-----333333-888888-3333-11-3--------------|
E|-20------------------|-----------------------------------------------------|


| /  slide up
| \  slide down
| h  hammer-on
| p  pull-off
| ~  vibrato
| +  harmonic
| x  Mute note
=============================================================================