Eraserheads - Julie Tearjerky Chords & Tabs

 

Julie Tearjerky Chords & Tabs

Eraserheads Chords & Tabs

Version: 2 Type: Tab 0 ratings
1 star 2 stars 3 stars 4 stars 5 stars
comments

Julie Tearjerky Tab

   
Song: Julie Tearjerky
Artist: Eraserheads
Album: Aloha Milkyway
Submitted by: bogey

Intro: (got this from other tabs)

E|----------4-----------------|
B|----2-3-5---5---------------|
G|---------------------2------|
D|---------------0-0-2--------|
A|--0---------------------0---|
E|----------------------------|

Verse:
A-AM7-A-AM7-Bm-A-G#-F#-E
A-AM7-A-AM7

Refrain: (guitar 1)
C-C-C7-F-Dm

(guitar 2)
E|-----------------------------------------|
B|------------6-6-5-5-3-------------------|
G|-----------------------------------------|
D|-----------------------------------------|
A|-----------------------------------------|
E|-----------------------------------------|
  ...some more...

Chorus:
(guitar1)
A-AM7-A-AM7

(guitar2)
E|-------------4--------------------------4-------------|
B|------2-3-5-----5-3-3-5---------2-3-5-----5-3-3-5---|
G|------------------------------------------------------|
D|------------------------------------------------------|
A|------------------------------------------------------|
E|------------------------------------------------------|

Verse 2:
A-AM7-A-AM7-Bm-A-G#-F#-E
A-AM7-A-AM7
[ Tab from: http://www.guitartabs.cc/tabs/e/eraserheads/julie_tearjerky_tab_ver_2.html ]
Refrain: (guitar 1)
C-C-C7-F-Dm 2x

(guitar 2)
E|------------------------------------------------------|
B|------------6-6-5-5-3-----------------6-6-5-5--3-----|
G|------------------------------------------------------|
D|------------------------------------------------------|
A|------------------------------------------------------| 2x
E|------------------------------------------------------|
  ...some more...           I need some more...

Repeat chorus

Adlib:

E|-----------4-------------------------4----------------|
B|--2-3-5-----5-33---5----2-3-5-----5-33---5----|
G|------------------------------------------------------|
D|------------------------------------------------------|
A|------------------------------------------------------|
E|------------------------------------------------------|
    Pa pa pa pa pa pa pa pa   pa pa pa pa pa pa pa pa 

E|-------------------------|
B|--7-7-5-5-3-20-----|
G|-------------------------|
D|-------------------------|
A|-------------------------|
E|-------------------------|
    Pa pa ra ra pa pa pa

E|------------------4------------------------4------|
B|--2-2-2-3-5------------2-2-2-3-5----------|
G|--------------------------------------------------|
D|--------------------------------------------------|
A|--------------------------------------------------|
E|--------------------------------------------------|
    Pa pa pa ra ra paaa...   pa pa pa ra ra paaa...   

Repeat refrain

Repeat chorus

Outro:
A-AM7 4x

Paki-rate na lang...=)
Comments