Eraserheads - Huwag Mo Nang Itanong Chords & Tabs

 

Huwag Mo Nang Itanong Chords & Tabs

Eraserheads Chords & Tabs

Version: 2 Type: Bass Tab 0 ratings
1 star 2 stars 3 stars 4 stars 5 stars
comments

Huwag Mo Nang Itanong Bass Tab

   
 ____  __________________________
|    ||                          (\
|    ||     ERASERHEADS          ( 
|____||__________________________(/

HUWAG MO NANG ITANONG  by:ando972003@yahoo.com
verse:E-A(4x)
     E             A
G|-----------|  |---------------------|
D|-----2-1h2-|  |-------2-4s6-4-2h3p2-|
A|-2h4-------|  |-2-2h4---------------|
E|-----------|  |---------------------|
I.Hika,               Ang inabot ko
  Ng piliting         Sumabay sa iyo
  Hanggang kanto      Ng isipan mong
  Parang Sweepstakes  Ang hirap manalo
II.Fieldtrip          Sa may pagawaan
  Ng lapis            Ay katulad ng
  Buhay natin         Isang mahabang pila
  Mabagal             At walang katuturan
[ Tab from: http://www.guitartabs.cc/tabs/e/eraserheads/huwag_mo_nang_itanong_btab_ver_2.html ]
pre-chorus:F#-G#-A-B
     F#               G#
G|---------------||---------------|
D|---------------||---------------|
A|---0-2s4-2-0---||---2-4s6-4-2---|
E|-2-----------2-||-4-----------4-|
I.Ngayon           Pag-uwi ko sa bahay
II.Ewan ko oh      Hindi ko alam
     A                       B
G|-----------------|     |-------------------|
D|-----------------|     |-------------------|
A|-----4-5s7-5-4---|     |-----6-7s9-7-6h7p6-|
E|-4s5-----------5-|     |-5s7---------------|
I.Ibaba ang yong kilay    ayoko ng ingay
II.Pwede bang wag na lang Nating pag usapan

chorus:E-A-E-A-E-A-F#-B
     E               A
G|-----------|  |---------------------|
D|-----2-1h2-|  |-------2-4s6-4-2h3p2-|
A|-2h4-------|  |-2-2h4---------------|
E|-----------|  |---------------------|
  Wag mo nang     Itanong sa akin
  Di ko rin naman Sasabihin
  Wag mo nang     Itanong sa akin

     F#                 B
G|---------------||---------------|
D|---------------||---1-2s4-2-1h2-|
A|---0-2s4-2-0---||-2-------------|
E|-2-----------2-||---------------|
  At di ko na      Iisipin

At sa higher verse, pre-chorus, at chorus ay itaas na lang ang mga
chords ng 2 fret. Pareho lang ang pattern ng tab itataas lang ng
2 fret.
Comments