Eraserheads - Huwag Mo Nang Itanong Chords & Tabs

 

Huwag Mo Nang Itanong Chords & Tabs

Eraserheads Chords & Tabs

Version: 1 Type: Bass Tab 0 ratings
1 star 2 stars 3 stars 4 stars 5 stars
comments

Huwag Mo Nang Itanong Bass Tab

   
Song: Huwag mo nang Itanong
Artist: erseraheads
Tabbed By: Regan

Standard tunning (E A D G)

Verse 1:
|----------------------------------|
|---------------------/9--7-6h7----|
|-----7-6-7-------7-6-----------7--|
|-7h9---------7h9------------------|

|----------------------------------|
|----------------------/9--7-6h7---|
|-----7-6-/9-------7-6-----------7-|
|-7h9----------7h9-----------------|

|----------------------------------|
|----------------------------7-6---|
|-/9--7-6-7---4-----4--7--9--------|
|----------------5-----------------|

|----------------------------------|
|----------------------------6h7-6-|
|-/9--7-6-7---4-----4--7--9--------|
|----------------5-----------------|

pre chorus 1
|-----------------------------------------------------|
|--------/6----------------6h7p6-----------7h9-7------|
|------------7\---------------------------------------|
|-/7--5-------------/7--5-----------/7--5-------------|

|-------------------|
|------------7h9-7--|
|---------7---------|
|-/7-5-9------------|

Chorus 1:
|---------------------------------|
|---------------------------------|
|---------7----4----------7-7---4-| 3x
|-0---/9---------5----5h7---------|
[ Tab from: http://www.guitartabs.cc/tabs/e/eraserheads/huwag_mo_nang_itanong_btab.html ]
|-------------------|
|-------------------|
|--------7h9-9------| 
|-/9--5-----------7-|

verse 2: the same as verse 1.

pre chorus 2
|-----------------------------------------------------|
|--------6/7--------------6h7-6---------------7h9-7---|
|-/9--7------------/9--7------------------7-----------|
|-----------------------------------/7-5--------------|

|------------------------------------|
|---------------9h11-9------------7\-|
|------5--7h9-7-------------7h9-7----|
|-/7---------------------------------|

Chorus 2:
|---------------------------------|
|---------------------------------|
|---------7----4----------7-7---4-| 3x
|-0---/9---------5----5h7---------|

|--------------------------|
|--------------------------|
|---------7---------9h11p9-|
|-5---/9-------7-----------|

guitar solo: the same as verse 1.
pre chorus 3: the same as prechorus 2.

Chorus 3:
|---------------------------1--|
|---------4---1---------5-5----|
|-----/6--------2---3h5--------| 3x
|-2----------------------------|

|-------2h4-2---------------3h5-3-|
|-3/5-----------2/4----2h4-2------|
|-----3-------------2-------------|
|---------------------------------|

You can play the chorus until the end. Kung may mali,
kayo na bahala pati na rin sa ending. 04/20/2005
Hi nga pala sa  barkada ko sa smad! and to my bandmates randy, earvin & bastes.

Pls. rate this tab.
Comments