Eraserheads - Huling El Bimbo Chords & Tabs

 

Huling El Bimbo Chords & Tabs

Eraserheads Chords & Tabs

Version: 1 Type: Tab 0 ratings
1 star 2 stars 3 stars 4 stars 5 stars
comments

Huling El Bimbo Tab

   
Artist:E-Heads
Song:Huling Elbimbo

Just Strum This Chords
[ Tab from: http://www.guitartabs.cc/tabs/e/eraserheads/huling_el_bimbo_tab.html ]
    
E---3-----5-----8-----3-----|
B---3-----5-----8-----3-----|
G---------------------------|
D---------------------------|
A---2-----4-----7-----2-----|
E---3-----5-----8-----3-----|

E---3-----5-----8-----3-----|
B---3-----5-----8-----3-----|
G---------------------------|
D---------------------------|
A---2-----4-----7-----2-----|
E---3-----5-----8-----3-----| 
                          
And that pretty much it.
Comments