Eraserheads - Hard To Believe Chords & Tabs

 

Hard To Believe Chords & Tabs

Eraserheads Chords & Tabs

Version: 1 Type: Tab 0 ratings
1 star 2 stars 3 stars 4 stars 5 stars
comments

Hard To Believe Tab

   
hi, it's my first time o write a tab,so pagtiyagaan nyo nlang mga pinoy!\m/

Hard To Believe
EraserHeads

Tabbed By:TeejAy Taa- Rakistang Astig  \m/

Chords Used:
 -C- -Em- Bb -A- -Dm- Bm?-G- -E-
| 0 | 0 | x | x | 1 | 2 | 3 | 0 |
| 1 | 0 | 3 | 2 | 3 | 3 | 3 | 0 |
| 0 | 0 | 3 | 2 | 2 | 4 | 0 | 1 |
| 2 | 2 | 3 | 2 | 0 | 5 | 0 | 2 |
| 3 | 2 | 1 | 0 | x | 2 | 2 | 2 |
| x | 0 | x | 0 | x | x | 3 | 0 |

intro:
e--------------------------------------------------|
b--5-5h6-5---------------------------1-1h3-1-------|
g----------7-5-3-2-2-2h3-2---------1---------1-----|
d--------------------------3-----3-------------3---|  then continue in chords
a------------------------------1-------------------|
e--------------------------------------------------|

stanza:

C           Em
I find it hard to believe
Bb             A                Dm
That all the pains that we are felling
          C                Bm?-G
Has some meaning in this world.
C         Em
It\'s so hard to believe
Bb          A                Dm
When everything you see is different
         C                       Bm?-G
From the things that you\'ve been told.
[ Tab from: http://www.guitartabs.cc/tabs/e/eraserheads/hard_to_believe_tab.html ]
Chorus:
C        E       Am        G
I wanted life to be this way
        Dm             C                  Bm?  G
Just a little bit of love could mean so much.
C                 E      Am   G
Oh please don\'t take it all way.
             Dm               C               Bm?    G
But with you heaven is still close enough to touch.

                           II
(Chords of I)
I find it hard to believe
That someone up there is waiting
With arms open wide and smiling
It\'s so hard to believe
When someone told me that your suffering
Is what you get for living
(Repeat Chorus)

Bridge:(got this chords from other tabs.\"not sure if its right)
       Bb                       A
Because your love is still the only thing
       Dm        F(hold)
That matters in this world
           C      G    C-G
The only thing I can believe

Ad lib:
C - Em - Bb - A - Dm - C - Bm? - G 2x
It's so hard to believe
It's so hard to believe
(Repeat Chorus)
(Repeat Bridge except last word)
           C  F
.........believe
           C      G     C  F
The only thing I can believe
           C       G (hold)
The only thing I can

.....believe

e------------------------------------------------|------------|
b--5-5h6-5---------------------------1-1h3-1-----|-------0----|
g----------7-5-3-2-2-2h3-2---------1---------1---|-----0------|
d--------------------------3-----3-------------3-|---2--------|
a------------------------------1-----------------|-3----------|
e------------------------------------------------|------------|

Pls Rate it nalang!
Siguradong sigurado ako dyan!Perfect na nga yan!

For Comments,email that to me: lidista@rock.com
Comments