Eraserheads - Hard To Believe Chords & Tabs

 

Hard To Believe Chords & Tabs

Eraserheads Chords & Tabs

Version: 1 Type: Bass Tab

Hard To Believe Bass Tab

Hard to Believe
Eraserheads

Tabbed by: Aki Capuchino

isabay nyo lng sa chords ng kanta...
may mga instances na double ung hit..tanchahin nyo nlng...

Verse1:
|-------------------------|
|-------------------------|
|--3--7----0-----3--------| x2
|--------7---10-----7--3--|

Chorus:
|-------------------------|
|-------------------------|
|--3--------------3-------| x2
|----0--5--3--10-----7--3-|
[ Tab from: http://www.guitartabs.cc/tabs/e/eraserheads/hard_to_believe_btab.html ]
Bridge:
|-----------|
|-----------|
|----0------|
|--6--10--1-|

|-------------|
|-------------|
|--3-----3----|
|-----3----3--|

Ad-lib:
|-----------------------|
|-----------------------|
|--3--7-----0-----------|
|--------6-----10--7--3-|

(Repeat Chorus)
(Repeat Bridge except last word..and then)

|---------------------|
|---------------------|
|--3----3----3-----3--|
|----3-----1----3-----|

-END-

For comments and suggestions email me at aki_boi24@yahoo.com