Eraserheads - Fruitcake Chords & Tabs

 

Fruitcake Chords & Tabs

Eraserheads Chords & Tabs

Version: 1 Type: Bass Tab 0 ratings
1 star 2 stars 3 stars 4 stars 5 stars
comments

Fruitcake Bass Tab

Fruitcake
Eraserheads
Tabbed by: Mikee Silvestre
[ Tab from: http://www.guitartabs.cc/tabs/e/eraserheads/fruitcake_btab.html ]
G|----------------------------------------------------------|
D|-----7---9---7---5---8--10--12---7------------------------|
A|-5--------------------------------------------------------|
E|----------------------------------------------------------|

G|----------------------------------------------------------|
D|----------------------------------------------------------|
A|-5--------------------------------------------------------|
E|-----9---7---5---3-----3h5-5------------------------------|
Comments