Eraserheads - Fill Her Chords & Tabs

 

Fill Her Chords & Tabs

Eraserheads Chords & Tabs

Version: 3 Type: Tab 0 ratings
1 star 2 stars 3 stars 4 stars 5 stars
comments

Fill Her Tab

-----------------------------------------------------------------
SONG NAME Ė Fill Her
-----------------------------------------------------------------
Tabbed by: J3y 4Re
Email: jrpogi_85@hotmail.com

Tuning: EADGBE

Intro:

e|-------------------9--------------------------------7-----------|
B|---9---------9----------------9------7---------7-------------7--|
G|---------8---------8------8----------------6--------6----6------|
D|---9---9---9---9--------9---9--------7---7---7---7-----7---7----|
A|----------------------------------------------------------------|
E|----------------------------------------------------------------|

e|-------------------5-------------------------------------------|
B|---5---------5----------------5------3---------3----4---6------|
G|---------4---------4------4----------------2-------------------|
D|---5---5---5---5--------5---5--------3---3---3-----------------|
A|---------------------------------------------------------------|
E|---------------------------------------------------------------|

e|-------------------9--------------------------------7-----------|
B|---9---------9----------------9------7---------7-------------7--|
G|---------8---------8------8----------------6--------6----6------|
D|---9---9---9---9--------9---9--------7---7---7---7-----7---7----|
A|----------------------------------------------------------------|
E|----------------------------------------------------------------|

e|-------------------5-----------5---6--7-------------------------|
B|---5---------5----------------------------------5--6--7---------|
G|---------4---------4-----4------------------6-------------------|
D|---5---5---5---5-------5---5---5---6--7---7---7-----------------|
A|----------------------------------------------------------------|
E|----------------------------------------------------------------|

[ Tab from: http://www.guitartabs.cc/tabs/e/eraserheads/fill_her_tab_ver_3.html ]
Verse
e|--------------------------------------------------------------------|
B|--9----------9------9---------9------7---------7------7---------7---|
G|--------8-----------------8----------------6----------------6-------|
D|--9---9---9----9----9---9---9---9----7---7---7---7----7---7---7---7-|
A|--------------------------------------------------------------------|
E|--------------------------------------------------------------------|
        You donít need...... 
e|--------------------------------------------------------------------|
B|--5----------5------5---------5------3---------3------4---6---------|
G|--------4-----------------4----------------2------------------------|
D|--5---5---5----5----5---5---5---5----3---3---3---3------------------|
A|--------------------------------------------------------------------|
E|--------------------------------------------------------------------| Repeat until chorus

Chorus 
e|-------------------9--------------------------------7-----------|
B|---9---------9----------------9------7---------7-------------7--|
G|---------8---------8------8----------------6--------6----6------|
D|---9---9---9---9--------9---9--------7---7---7---7-----7---7----|
A|----------------------------------------------------------------|
E|----------------------------------------------------------------|
     Though I cant see u.... 
e|-------------------5-------------------------------------------|
B|---5---------5----------------5------6---------6----7---9------|
G|---------4---------4------4----------------5-------------------|
D|---5---5---5---5--------5---5--------6---6---6---6-------------|
A|---------------------------------------------------------------|
E|---------------------------------------------------------------|

Ending x2
e|-------------------9--------------------------------7-----------|
B|---9---------9----------------9------7---------7-------------7--|
G|---------8---------8------8----------------6--------6----6------|
D|---9---9---9---9--------9---9--------7---7---7---7-----7---7----|
A|----------------------------------------------------------------|
E|----------------------------------------------------------------|
     Hmmm.... 
e|-------------------5-------------------------------------------|
B|---5---------5----------------5------3---------3----4---6------|
G|---------4---------4------4----------------2-------------------|
D|---5---5---5---5--------5---5--------3---3---3-----------------|
A|---------------------------------------------------------------|
E|---------------------------------------------------------------|

Lyrics:

Verse:
You don't need to live
It seems a bit naive
No need to disagree
Or seek my history
You're staring at my soul
My sanity you stole
But then I knew all along
That anything could go wrong

Chorus:
Though I can't see you,  I can feel you      
I'm so glad you opened my door
And when I get near, all my fears disappear
And I won't be alone anymore
Comments