Eraserheads - Balikbayan Box Chords & Tabs

 

Balikbayan Box Chords & Tabs

Eraserheads Chords & Tabs

Version: 2 Type: Tab 0 ratings
1 star 2 stars 3 stars 4 stars 5 stars
comments

Balikbayan Box Tab

e|-----12------12-----12-------------12--------12-------12-----------------|
B|----------9-------9-------9h10------------10----------------10p9---------|
G|--9-----------------------------11----------------11---------------------|
D|-------------------------------------------------------------------------|
A|-------------------------------------------------------------------------|
E|-------------------------------------------------------------------------|
[ Tab from: http://www.guitartabs.cc/tabs/e/eraserheads/balikbayan_box_tab_ver_2.html ]
e|----12------12-----12------------12---------------12----------12---------|
B|--------9-------9-------9h10---------10-------10-----10--------10p9------|
G|--9---------------------------11---------11--------------11---------10---|
D|-------------------------------------------------------------------------|
A|-------------------------------------------------------------------------|
E|-------------------------------------------------------------------------|

first and maybe the last tab i'll ever submit...i didn't even made it...my sister did...
please rate it for the sake of her...thanx...

>>the spirit of eheads lives on<<



--jr_18@walla.com
Comments