Erase The Grey - Rain Chords & Tabs

 

Rain Chords & Tabs

Erase The Grey Chords & Tabs

Version: 1 Type: Bass Tab 0 ratings
1 star 2 stars 3 stars 4 stars 5 stars
comments

Rain Bass Tab

Band:  Erase The Grey
Song:  Rain
Album: 27 Days EP
Tabbed by:  unrealteg99
Submitted By: Stand Alone (projectwyze13@hotmail.com)

Intro:

G|-------------------------------------------------|
D|----------------6-4-------9----------------------|
A|----4---------7-----7---9---------9-------7------|
E|------------7---------7-----7--------------------|
B|--2---2---5---------------------7---7-7-9---9-9--|

Verse 1:

G|-------------------------------------------------|
D|----------------6-4-------9----------------------|
A|--------------7-----7-------------9-------7------| x2
E|------------7---------7-7---7--------------------|
B|--2-2-2---5---------------------7---7-7-9---9-9--|

G|----------------------------------------|
D|----------------------------------------|
A|----------------------------------------| x2
E|--------------------77777777------------|
B|--22222222-55555555----------7777-9999--|

Chorus:

G|-------------------------------------|
D|-------------------------------------|
A|-------------------------------------|
E|-------------------------------------|
B|--7---7--7--7-7--7--5--5--0---0-0-0--|

G|-------------|
D|-------------|
A|-------------|  x4
E|-------------|
B|--7525752p0--|

Fill:

G|-----------------------------------------------|
D|----------------6-4-------9--------------------|
A|------4-------7-----7---9-------5/7-5-4-5-4----|
E|----4-------7---------7-----7---------------7--|
B|--2-------5------------------------------------|

Verse 2:

G|-------------------------------------------------|
D|----------------6-4-------9----------------------|
A|--------------7-----7-------------9-------7------| x2
E|------------7---------7-7---7--------------------|
B|--2-2-2---5---------------------7---7-7-9---9-9--|

G|----------------------------------------|
D|----------------------------------------|
A|----------------------------------------| x2
E|--------------------77777777------------|
B|--22222222-55555555----------7777-9999--|

Chorus:

G|-----------------------------|
D|-----------------------------|
A|-----------------------------|
E|-----------------------------|
B|--7---7--7--7-7--7--5--0~~~--|
[ Tab from: http://www.guitartabs.cc/tabs/e/erase_the_grey/rain_btab.html ]
G|-------------|
D|-------------|
A|-------------| x4
E|-------------|
B|--7525752p0--|

G|-------------------------------------|
D|-------------------------------------|
A|-------------------------------------|
E|-------------------------------------|
B|--7---7--7--7-7--7--5--5--0---0-0-0--|

G|-------------|
D|-------------|
A|-------------| x4
E|-------------|
B|--7525752p0--|

Bridge:

G|---------------------------------|
D|---------------------------------|
A|---------------------------------|
E|---------------------------------|
B|--2~~~---5~~~---0~~~---7~~~9~~~--|

G|---------------------------------|
D|---------------------------------|
A|---------------------------------|
E|---------------------------------|
B|--2~~~---5~~~---0~~~---7~~~9999--|

G|----------------------------------------|
D|----------------------------------------|
A|----------------------------------------| x4
E|--------------------77777777------------|
B|--22222222-55555555-00000000-7777-9999--|

Chorus:

G|-------------------------------------|
D|-------------------------------------|
A|-------------------------------------|
E|-------------------------------------|
B|--7---7--7--7-7--7--5--5--0---0-0-0--|

G|-------------|
D|-------------|
A|-------------| x4
E|-------------|
B|--7525752p0--|

Ending:

G|-------------------------------------|
D|-------------------------------------|
A|-------------------------------------| x2
E|-------------------------------------|
B|--7---7--7--7-7--7--5--5--0---0-0-0--|

G|----------------------------------|
D|----------------------------------|
A|----------------------------------|  ========\
E|----------------------------------|          |
B|--7---7--7--7-7--7--5--0~~~0-0-0--|          |
                                               |-- x2
G|-------------------------------------|       |
D|-------------------------------------|       |
A|-------------------------------------|  =====/
E|-------------------------------------|
B|--7---7--7--7-7--7--5--5--0---0-0-0--|

G|-----------------------------|
D|-----------------------------|
A|-----------------------------|
E|-----------------------------|
B|--7---7--7--7-7--7--5--0~~~--|
Comments