Epsrec - I'm Chavvin It Chords & Tabs

 

I'm Chavvin It Chords & Tabs

Epsrec Chords & Tabs

Version: 1 Type: Bass Tab 2 ratings
1 star 2 stars 3 stars 4 stars 5 stars
comments

I'm Chavvin It Bass Tab

   
This is a cool song.

Intro (bass only)

G:---------------2-----------------
D:---------------------------4---4-
A:-------4-0-0-0-----------2---2---
E:-2-2-2-----------0-0-0-0---------

Verse

G:-----------------------------------------------------------------
D:---------------------------------2-2-2-2-2-2-2-2-----------------
A:-----------------0-0-0-0-0-0-0-0-----------------2-2-2-2-2-2-2-2-
E:-2-2-2-2-2-2-2-2-------------------------------------------------

Chorus
[ Tab from: http://www.guitartabs.cc/tabs/e/epsrec/im_chavvin_it_btab.html ]
G:------------------------------------------------------------------
D:------------------------------------------------------------------
A:------------------------------------------------------------------
E:-2-2-2-2-2-2-2-2-2-2-2-2-2-2-2-2-4-4-4-4-4-4-4-4-4-4-4-4-4-4-4-4-

-----------------------------------------------------------------
-----------------------------------------------------------------
-----------------------------------------------------------------
-6-6-6-6-6-6-6-6-6-6-6-6-6-6-6-6-7-7-7-7-7-7-7-7-7-7-7-7-7-7-7-7-

Interlude is same as intro 4 bass
Comments