Enya - Marble Halls Chords & Tabs

 

Enya Chords & Tabs

Version: 1 Type: Tab 0 ratings
1 star 2 stars 3 stars 4 stars 5 stars
comments

Marble Halls Tab

   
#----------------------------------PLEASE NOTE---------------------------------#
#This file is the author's own work and represents their interpretation of the #
#song. You may only use this file for private study, scholarship, or research. #
#------------------------------------------------------------------------------#
From: kharding@lamar.ColoState.EDU (Karol Harding)

MARBLE HALLS/I DREAMT I DEWLT IN

Recorded by Enya on Shepard Moon
Originally written by Michael Balfe (1883) 
for the opera "Bohemian Girl; Balfe was a musical prodigy
 born in Dublin, Ireland.

TAB VERSION:
3/4 (key of A)

E|--0--0---5--4---|--0---4----2----|--0--2--0-------------|
B|----------------|----------------|-----------2----------|
G|----------------|----------------|----------------2-----|
D|----------------|----------------|--------------2-------|
A|-----0----------|----------------|--0--------0----------|
E|----------------|--0-------------|----------------------|


E|----0-----------|--0-------------|----------------|
B|-2-----3-----0--|-----3-----2-0--|---------0------|
G|---------3------|----------------|-2-----------1--|
D|----------------|----------------|------------0---|
A|----0--2--------|----------------|-0---------2----|
E|----------------|--0-------------|---------0------|


E|--0--0--2--7-5-5|--2--7---5---2--|--7---5--0------|
B|----------------|----------------|---------2------|
G|----------------|----------------|---------2------|
D|--------0-------|-------------0--|----------------|
A|--0-------------|-----7----------|---------0------|
E|----------------|----------------|----------------|

[ Tab from: http://www.guitartabs.cc/tabs/e/enya/marble_halls_tab.html ]
E|-0--0----0---2--|--2-4------5----|--4-----2---|-0--0--5--4--0--|
B|------4---------|----------------|------------|----------------|
G|----------------|----------------|------------|----------------|
D|----------------|--0-------------|--2---------|----------------|
A|------2---------|----------------|------------|----0-----------|
E|----------------|----------------|--0---------|-------------0--|
                                            but   I also...                                            
E|--4--2--0---2-0-|------------|-0--------------|-0--------------|
B|----------------|--2-----2---|----3-----------|----3-2-0-------|
G|----------------|------------|-------3--4--0--|-----------2----|
D|----------------|------------|----------------|-----------2----|
A|--------0-------|--0---------|----2-----------|-0---------0----|
E|----------------|------------|----------------|----------------|

***REPEAT ONCE:

E|--0-0--2--7--5--|--0-0--2--7--5--|--4----2--------|-4----5-----|
B|----------------|----------------|----------------|------5-----|
G|----------------|----------------|----------------|------6-----|
D|--2----0--------|-------1--------|--2-------------|-2----------|
A|----------------|--0-------------|----------------|------7-----|
E|----------------|----------------|----------------|------------|
****************                                                

E|-0--0--2--4--5--|--9--7----2-----|--4---------|--5-------------|
B|----------------|----------------|------------|------5-----5---|
G|----------------|-------------2--|------------|--6------6------|
D|-------0--------|--7-------0-----|--2---------|----------------|
A|-0--------------|----------------|------------|--7-------------|
E|----------------|----------------|--------0---|----------------|

FINAL ENDING:

E|----------------|----------------|------------|---------|
B|----------------|--2--0----------|------------|--2------|
G|----------1--2--|----------------|----1-------|--2------|
D|--2-2--4--------|--------4-------|------------|--2------|
A|----------------|--------5-------|------------|--0------|
E|----------0-----|----------------|----0-------|---------|


"The original appears to be in key of Bf; if you love bar chords
try this with bflat, F7, cminor instead. I have written it in the
key of A for sanity.  

Enya does this with a simple pick: T234 T3 (or some variation thereof)


ENDING TAB:

|E------------------------------------------------||-
|B-------------------2---0-----------2------------||-
|G-----------1--2----------------1---2------------||-
|D--2--2--4------------------4-------2------------||-
|A-------------------0-------0-------0------------||-
|E-----------0------------------------------------||-
Comments