Enya - How Can I Keep From Singing Chords & Tabs

 

How Can I Keep From Singing Chords & Tabs

Enya Chords & Tabs

Version: 1 Type: Tab 0 ratings
1 star 2 stars 3 stars 4 stars 5 stars
comments

How Can I Keep From Singing Tab

   
#----------------------------------PLEASE NOTE---------------------------------#
#This file is the author's own work and represents their interpretation of the #
#song. You may only use this file for private study, scholarship, or research. #
#------------------------------------------------------------------------------##
 
From: "Karol Harding" 
To: jamesb@nevada.edu
Subject: TAB: Enya/How can I keep from singing
X-Incognito-Sn: 204
X-Incognito-Format: VERSION=1.50c ENCRYPTED=NO

	file attached
HOW CAN I KEEP FROM SINGING?
By Nicky Ryan and Enya
Tab by Chala the Joyful Dancer


4 CHORD INTRO: D D7 (as below) A7  D

   D                  D7    A7  D   G      D          A7        D7
4/4
E|-----|----------0---2--|--0------------|----------|--0----0----0---|
B|-----|------3-------2--|------3---0----|----------|--2---------2---|
G|--2--|--2-----------2--|------2--------|--2-----3-|--2---------2---|
D|--0--|-----------------|------0--------|--0-------|--2-------------|
A|-----|-----------------|---------------|--0-------|----------------|
E|-----|-----------------|---------------|----------|----------------|

   D            D             D7     A7    D    G     D
                2nd & 4th lines:
E|-----2---5------|-------0----2---|--0----2--------|----------------|
B|--3------7------|----3-------2---|-------3----0---|----------0--3--|
G|---------7----2-|-2----------2---|-------2--------|-2------2-------|
D|---------7----0-|----------------|----------------|-0------0-------|
A|----------------|----------------|----------------|----------------|
E|----------------|----------------|----------------|----------------|
(REPEAT 1st two lines for verse 1, 2nd two lines for verse 2, etc.)
[ Tab from: http://www.guitartabs.cc/tabs/e/enya/how_can_i_keep_from_singing_tab.html ]
    D7        A7     D         D              D7    D         D
                      **  verse 2 begins:
E|--2---0--0---|------||----|--2--3----5---|--5--2-0--2-------|-5----|
B|--2------2---|--3---||--3-|----------7---|----------3---3---|------|
G|--2------0---|--2---||--2-|----------7---|----------2-------|-3----|
D|---------2---|--0---||--0-|----------7---|------------------|-3----|
A|-------------|------||----|--------------|------------------|-3----|
E|-------------|----------|----------------|------------------|------|

 (Melody repeats 2nd line)

      D             D7     A7    D    G     D

E|------|-------0----2---|--0----2--------|----------------|
B7------|----3-------2---|-------3----0---|----------0--3--|
G|----2-|-2----------2---|-------2--------|-2------2-------|
D|----0-|----------------|----------------|-0------0-------|
A|------|----------------|----------------|----------------|
E|------|----------------|----------------|----------------|

    D7        A7     D

E|--2---0--0---|----------||
B|--2------2---|--3-----3-||
G|--2------0---|--2-----2-||
D|---------2---|--0-----0-||
A|-------------|----------||
E|-------------|----------||


My life goes on in endless song
above earth's lamentations,
I hear the real, though far off hymn
that hails a new creation.

Through all the tumult and the strife
I hear it's music ringing,
It sounds an echo in my soul.
How can I keep from singing?
-------------------------------

What though the tempest loudly roars
I hear the truth it liveth.
And though the darkness round me closes
Songs in the night it giveth.

No storm can shake my inmost calm
While to that rock I'm clinging
Since love is lord of heav'n and earth
How can I keep from singing?
-----------------------------------
When tyrants tremble in their fear
and hear their death knoll ringing
When friends rejoice both far and near,
How can I keep from singing?

In prison cell and dungeon vile
our thoughts to them are winging.
When friends by shame are undefiled
how can I keep from singing?

Comments