Entombed - Stranger Aeons Chords & Tabs

 

Stranger Aeons Chords & Tabs

Entombed Chords & Tabs

Version: 2 Type: Bass Tab 0 ratings
1 star 2 stars 3 stars 4 stars 5 stars
comments

Stranger Aeons Bass Tab

   
ENTOMBED  STRANGER AEONS
>From the Album CLANDESTINE 1992, EARACHE RECORDS
                      
Transcribed by: Etienne Perreault
For Questions, Comments or Corrections contact
                Etienne:   pero20@hotmail.com

/  - slide up
\  - slide down 
*  - see comment
() - ghost note, sustained note

Tune Down to D (D,G,C,F)

Intro Slide (do not play)

Riff A (play 1 time)
|----------------------------------------------------------------------|
|----------------------------------------------------------------------|
|---------------------1-----------------------1----------------------1-|
|-0-111-0-111-0-111-0-----0-111-0-111-0-111-0----0-111-0-111-0-111-0---|

                                                               end riff A   
|-------------------------------------------------------------------------| 
|-------------------------------------------------------------------------|  
|---------------------666---------------------1----------------------666--|
|-0-111-0-111-0-111-0-----0-111-0-111-0-111-0----0-111-0-111-0-111-0------|

Riff B (play 1 time)
|-------------------------------------------------------------------------|
|-------------------------------------------------------------------------|
|-55555555444444----------------------------------55555555444444-------7--|
|----------------5--4--1---0-000-0-000-0-000-0-000---------------5--4-----|

                                  End Riff B
|-------------------------------------------|
|-------------------------------------------|
|-------------------------55555554----------|
|-0-000-0-000-0-000-0-000-----------5--4--1-|

Riff C  (play 4 times)                    end riff C
|-----------------------------------9-7-6-----------|
|-----------------------------------------8--7-8----|
|------1--------1--------------------------------10-|
|-0000---000-00---0----0-00-1-000-------------------|
[ Tab from: http://www.guitartabs.cc/tabs/e/entombed/stranger_aeons_btab_ver_2.html ]
  Riff D (play 4 times)  					end riff D
|------------------------------------------------------------------------|
|------------------------------------------------------------------------|
|----------*-------------------------------------------------------------|
|-22222222/10101010101010--6---22222222/10101010101010--6--3\2-----------|
                                                         * These are 10's

Riff E (play 1 time)
|----------------------------------------------------------|
|----------------------------------------------------------|
|-5-555-555-555---------------5-555-555-555----------------|
|---------------4-444-444-444----------------4-444-444-444-|

						end riff E
|----------------------------------------------------------|
|----------------------------------------------------------|
|-3-333-333-333---------------3-333-333-333----------------|
|---------------2-222-222-222---------------2222-2222------|

Riff F (play 1 time)                               
|-----------------------------------------------------------------|
|-----------------------------------------------------------------|
|-----------------------------7--------------------------------7--|
|-666666-66-6-0---666666-66-6------666666-66-6-0---666666-66-6----|

                                                                  end riff F
|---------------------------------------------------------------------------|
|---------------------------------------------------------------------------|
|-----------------------------7---------------------------------------------|
|-666666-66-6-0---666666-66-6------666666-66-6-0---666666-66-6-0--(0)-------|

Riff G (play 2 times, solo falls in second time)
|----------------------------------------8---7-------|
|------------------------------------9-8-------8-----|
|-----------------1------------------------------9\--|
|-0-000-0-0-000-0------0-000-0-00-0------------------|

                                            end riff G 
|--------------------------------------------12p9--12\-|
|-------------------------------------9-12p9-----------|
|-----------------1------------------------------------|
|-0-000-0-0-000-0------0-000-0-00-0--------------------|

during solo:
Play Riff D under solo play 6 times
Play Riff E one time
Play Riff F one time
Play Riff A one time

                I think thats it but i'm not sure...
                Jethro         Etienne:   pero20@hotmail.com
Comments