Entombed - Seeing Red Chords & Tabs

 

Seeing Red Chords & Tabs

Entombed Chords & Tabs

Version: 1 Type: Tab 0 ratings
1 star 2 stars 3 stars 4 stars 5 stars
comments

Seeing Red Tab

   
Entombed-Seeing red From the album Uprising
n
p = pull off
b = bend
r = release bend
~ = vibrato
/ = slide up
\ = slide down
. = palm mute

Intro Riff
e|-0h3p0------------0h3p0------------------------|-------|
B|-------0h3p0------------0h3p0------------------|-------|
G|-------------2h3--------------2h3--------------|-9-----|
D|------------------------------------3-----5----|-9-----|
A|------------------------------------1-3---3-5--|-7-----|
E|--------------------------------------1-----3--|-0-----|

Pre-verse
          (x3)
e|------------|---|---|---|-12------13------14------15------|
B|------------|---|---|---|-15b(17)-16b(18)-17b(19)-18b(20)-|
G|------------|-9-|-9-|-9-|---------------------------------|
D|-3-----5----|-9-|-9-|-9-|---------------------------------|
A|-1-3---3-5--|-7-|-7-|-7-|---------------------------------|
E|---1-----3--|-0-|-0-|-0-|---------------------------------|

Verse (probably wrong, hard to hear what's going on)
e|---------------------------------------------------------------------------|
B|---------------------------------------------------------------------------|
G|---------------------------------------------------------------------------|
D|--------------------3-----------------------------------------3------------|
A|-----2-2--5-4-2-2-5-1-------2-2--5\4-2-5\4-2-1-----2-2--5---5-1--------2-2-|
E|-5\3-0-0--3-2-0-0-3-----5\3-0-0--3\2-0-3\2-0---5\3-0-0--3-0-3------5\3-0-0-|
            . . . . .              . . . . . . .          . . .

Play this before vocals kick in
e|-0h3p0------------0h3p0-----------|
B|-------0h3p0------------0h3p0-----|
G|-------------2h3--------------2h3-|
D|----------------------------------|
A|----------------------------------|
E|----------------------------------|

Chorus last time
e|--------------------|---------------------------|---------------------------|
B|--------------------|---------------------------|-4-----5-----6------7------|
G|-6-6--6-5-----------|-6-6--6-5------------------|-6b(8)-7b(9)-8b(10)-9b(11)-|
D|-6-6--6-5--5--5---2-|-6-6--6-5--5--5-5---5--5-5-|---------------------------|
A|-4-4--4-3--5--5---2-|-4-4--4-3--5--5-5---5--5-5-|---------------------------|
E|-----------3--3---0-|-----------3--3-3---3--3-3-|---------------------------|

Bridge
e|-----------------------------------|-----------------------------------|
B|-----------------------------------|-----------------------------------|
G|-----------------------------------|-----------------------------------|
D|-5--5-5---5--5-5---5--5-5---5--5-5-|-2--2-2---2--2-2---2--2-2---2--2-2-|
A|-5--5-5---5--5-5---5--5-5---5--5-5-|-2--2-2---2--2-2---2--2-2---2--2-2-|
E|-3--3-3---3--3-3---3--3-3---3--3-3-|-0--0-0---0--0-0---0--0-0---0--0-0-|

Solo w/ backing chords
   G                                           E 
e|----------------------------------------------------------------------|
B|--8----------11-----11-----11----------------5-------------5----------|
G|-10b(12)hold---(12)---(12)---(12)-r(10)---7--7b(9)~--------7b(9)~-----|
D|----------------------------------------------------------------------|
A|----------------------------------------------------------------------|
E|----------------------------------------------------------------------|
[ Tab from: http://www.guitartabs.cc/tabs/e/entombed/seeing_red_tab.html ]
   G
e|----------------8-----------------------------8---------------|
B|-(8)-----11--------11--(8)-------------11--------11-----------|
G|-10b(12)----(12)-------10b(12)-10b(12)----(12)------(12)------|
D|--------------------------------------------------------------|
A|--------------------------------------------------------------|
E|--------------------------------------------------------------|

   E
e|-12-------12--------15------15-------12-------12---------|
B|-15b(17)~-15b(17)~-----(17)----(17)--15b(17)~-15b(17)~---|
G|---------------------------------------------------------|
D|---------------------------------------------------------|
A|---------------------------------------------------------|
E|---------------------------------------------------------|

   C                 E                                  C 
e|---------------------------------------------------------------------12----|
B|-13------13--------15----------------------------------------15---------12-|
G|-15b(17)-15b(17)~--14b(16)r(14)-12h14-12--------------14b(16)---(16)-------|
D|-----------------------------------------14-------12-----------------------|
A|--------------------------------------------12h14--------------------------|
E|---------------------------------------------------------------------------|

   E                    C                                 E
e|---------------------------------------------------------------------------10|
B|-10b(12)r(10)-8h10-8~-------------------------8-----8---8-10-8-10-12-10-12---|
G|----------------------9-----7---7-9---7-9-7-9---7-9---9----------------------|
D|------------------------7-9---9-----9----------------------------------------|
A|-----------------------------------------------------------------------------|
E|-----------------------------------------------------------------------------|

   C                                    both guitars
e|-------10----10-12--------12----12-15---------------------------12-------|-12-------|
B|-10h12----12--------12-15----15-------4-----5-----6------7------15b(17)~-|-15b(17)~-|
G|--------------------------------------6b(8)-7b(9)-8b(10)-9b(11)----------|----------|
D|-------------------------------------------------------------------------|----------|
A|-------------------------------------------------------------------------|----------|
E|-------------------------------------------------------------------------|----------|

Post-solo
Bass
G|--------------------------------------------------------------------|
D|--------------------------------------------------------------------|
A|-5-7-7-7-7-7-7-7-5-7-7-7-7-7-7-7-5-7-7-7-7-7-7-7-5-7-7-7-7-7-/-14-\-|
E|--------------------------------------------------------------------|

Guitar             (x3)
e|---------------------|------------------|-0h3p0------------0h3p0-----------|
B|---------------------|------------------|-------0h3p0------------0h3p0-----|
G|-----------------/-9-|-3--------5-------|-------------2h3--------------2h3-|
D|-8-\-3-/-10-\-5------|-3--3--3--5--5--5-|----------------------------------|
A|-----------------/-7-|-1--3--3--3--5--5-|----------------------------------|
E|-6-\-1-/--8-\-3------|----1--1-----3--3-|----------------------------------|

Play this till the end of the song
e|------------------------|
B|------------------------|
G|-3-------5-----9-9-9-9--|
D|-3--3----5--5--9-9-9-9--|
A|-1--3----3--5--7-7-7-7--|
E|----1-------3-----------|
Comments