Entombed - Out Of Hand Chords & Tabs

 

Out Of Hand Chords & Tabs

Entombed Chords & Tabs

Version: 1 Type: Tab 0 ratings
1 star 2 stars 3 stars 4 stars 5 stars
comments

Out Of Hand Tab

 
                           Out of hand
Transcibed by Tuukka Eskola   

Tune down to C
1                 2                             3
|---------------|----------------------------|------------------------|
|---------------|----------------------------|------------------------|
|---------------|----------------------------|----------------7-7-7-7-|
|---------------|----------------------------|----------------5-5-5-5-|
|---------------|-2-2-2--3-3-3-8-7----5--4---|-4-4-4--7/8\7-5---------|
|--x\----x\-----|-0-0-0--1-1-1-6-5-0----6--5-|-2-2-2--5/6\5-3---------|
                P.M |--|          |-|
[ Tab from: http://www.guitartabs.cc/tabs/e/entombed/out_of_hand_tab.html ]
  4                        5                               6                   7       
|------------------------|-------------------------------|------------------|------------------|
|------------------------|-------------------------------|------------------|------------------|
|------------------------|-------------------------------|------------------|------------------|
|------------------------|--------4-4-4-4-4------3-3-3-3-|-------4-4-4------|------------------|
|-4-4-4--7/8\7-5-5-5-5-5-|-2-2-2--2-2-2-2-25-5-5-1-1-1-1-|-2-2-2-2-2-2-5----|--pause---5--4----|
|-2-2-2--5/6\5-3-3-3-3-3-|-0-0-0-----------3-3-3---------|-0-0-0-------3----|------------6--5--|

 8                     9                                   10
|--------------------|--------------------------------|-------------------------|
|--------------------|--------------------------------|-------------------------|
|--------------------|--------------------------------|-------------------------|
|--------------------|------9-----7-----6-------------|---------3-5------5--5-3-|
|-4-4-4-7-8-7-5-5555-|------7-----5-----4----7-6-5--2-|-2-------1-3------3--3-1-|
|-2-2-2-5/6\5-3-3333-|-0-0----0-0---0-0----0-5-4-3--0-|-0-0-0-0--0-0-0-0--0-----|
          P.M  |----|  |--|   |--|  |--|  |-------|       |----| - |----| -

|-------------------------|---------------|
|-------------------------|---------------|
|-------------------------|---------------|
|-------------------------|-------4-4-4---|     FUCK!!!!!!!!!!!!!!
|-4-4-4-4-4-5-5-5-7-7-7-7-|-2-2-2-2-2-2-5-|
|-2-2-2-2-2-3-3-3-5-5-5-5-|-0-0-0-------3-|
P.M|-| |-|

Tuukka Eskola 

espo@edu.lahti.fi
Comments