Entombed - Demon Chords & Tabs

 

Demon Chords & Tabs

Entombed Chords & Tabs

Version: 1 Type: Tab 0 ratings
1 star 2 stars 3 stars 4 stars 5 stars
comments

Demon Tab

   
                        ENTOMBED - DEMON
                        From the Album WOLVERINE BLUES
                        Copyright 1994 EARACHE RECORDS
                        Version 1.0 - SEPTEMBER 2001

Transcribed by: death8699

For Questions, Comments, Newest Version, or Corrections contact
death8699: at unhollowed@aol.com

Check Out Death Warp, With More Transcriptions On It:
http://www.sorrowsend.com/DeathWarp

Tablature Notation
------------------
.  - palm mute                  /  - slide up to
\  - slide down to              ~  - vibrato
h  - hammer on                  b  - bend
p  - pull off                   Suffixes for bend
ph - pinch harmonic             f - full bend    h - half bend
*  - see comment                r - release      t - tap bend
X  - percussion mute            ~ - vibrato bend
@  - slight palm mute           () - ghost note, sustained note

Tune Gtr to C

DEMON

Riff A                                              4tx
|------------------------------------------------------|
|------------------------------------------------------|
|------------------------------------------------------|
|--------------------------------------------------5\2-|
|-2---2---5-----3-2------2---2---5-----3-------2---3\0-|
|-0---0---3---0-1-0------0---0---3---0-1---0-0---0-----|
                                     .     . .   .

[ Tab from: http://www.guitartabs.cc/tabs/e/entombed/demon_tab.html ]
Riff B
|--------------------------------------------------------------|
|--------------------------------------------------------------|
|--------------------------------------------------------------|
|----------------------------------------------------------5\2-|
|-2---2---5-----3-2-------2(3)-----------5-----3-------2---3\0-|
|-0---0---3---0-1-0---0-0--------0-0-0-0-3---0-1---0-0---0-----|
|                     . .  tr    . . . .     .     . .   .
|
|                                                           2tx
|--------------------------------------------------------------|
|--------------------------------------------------------------|
|--------------------------------------------------------------|
|-------------------------7(8)-----------------------------5\2-|
|-2---2---5-----3-2----------------------5-----3-------2---3\0-|
|-0---0---3---0-1-0---0-0--------0-0-0-0-3---0-1---0-0---0-----|
              .       . .  tr    . . . .     .     . .   .


Riff C                                      4tx
|---------|------------------------------------|
|---------|------------------------------------|
|---------|------------------------------------|
|---------|-----------------------9/10-7/9-----|
|---------|-2-----5-----8-8-7-7---7/9--5/7-----|
|-0-0-0-0-|-0-0-0-3-0-0-6-6-5-5-0----------0-0-|
  . . . .     . .   . . . . . . .          . .


Riff A 2tx
Riff B 1tx
Riff C 8tx


Fill
|--------------------------|
|--------------------------|
|--------------------------|
|----------3---------------|
|-2--------1---2-----------|
|-0------0---0-0------x\---|
         .   .


Riff D                 1tx                   1tx
|-------------------------|---------------------|
|-------------------------|---------------------|
|-------------------------|---------------------|
|-------3"----------6"----|-------3"----------6-|
|-5---5-1"----5-4-5-4"----|-5---5-1"----5-4-5-4-|
|-3-0-3-------3-2-3-------|-3-0-3-------3-2-3---|
  . . .       . . .         . . .       . . .


Riff E         4tx               4tx
|-----------------|-----------------|
|-----------------|-----------------|
|-----------------|-----------------|
|-----------------|-----------------|
|-5-5-8---5---2---|-5-5-8---5---2---|
|-3-3-6-0-3-0-0---|-3-3-6-0-3-0-0---|
  . . . . . .


Riff D 1tx
Riff E 4tx


Riff F          4tx
|------------------|
|------------------|
|------------------|
|-3-3-3-3-3-3------|
|-1-1-1-1-1-1------|
|------------------|


Riff A.1                   4tx
|-----------------------------|
|-----------------------------|
|-----------------------------|
|-------------------------4/5-|
|-2---2---5-----3-2---3\2-2/3-|
|-0---0---3---0-1-0---1\0-----|


Ending
|-------------------|
|-------------------|
|-------------------|
|-------------------|
|-2---2---5-----3-2-|
|-0---0---3---0-1-0-|


Check Out Death Warp, With More Transcriptions On It:
http://www.sorrowsend.com/DeathWarp
Comments