Entombed - Damn Deal Done Chords & Tabs

 

Damn Deal Done Chords & Tabs

Entombed Chords & Tabs

Version: 1 Type: Tab

Damn Deal Done Tab

   
Band- Entombed
Song- Damn Deal Done

Riff A
---------------------------------------------------------|
---------------------------------------------------------|
---------------------------------------------------------|
---------------------------------------------------------|
-/7--5------------/7--5---------2------------------------|
--------6-5--3-----------6-5--3-0------------------------|

Riff B
---------------------------------------------------------|
---------------------------------------------------------|
---------------------------------------------------------|
-----------5------------------------5--------------------|
-2-2---5-7---7-5-7--------2-2---5-7---7-5-7--2-5-8-------|
-0-0---------------6-5-3--0-0----------------0-3-6-------|


---------------------------------------------------------|
---------------------------------------------------------|
---------------------------------------------------------|
-----------5------------------------5-7^8-7-5--5-7-5-----|
-2-2---5-7---5-7-5--------2-2---5-7-----------7------7---|
-0-0---------------6-5-3--0-0----------------------------|

Riff C
---------------------------------------------------------|
---------------------------------------------------------|
---------------------------------------------------------|
---------------------------------------------------------|
-2----2----2-----8-7-5-7-5-7/-5--------------------------|
-0-00-0-00-0-00--6-5-3-5-3-5/-3--------------------------|
[ Tab from: http://www.guitartabs.cc/tabs/e/entombed/damn_deal_done_tab.html ]
Riff D
---------------------------------------------------------|
---------------------------------------------------------|
---------------------------------------------------------|
------/9-99----------------------------------------------|
-2----/7-77--8-7-5-7-5-7/-5------------------------------|
-0-00--------6-5-3-5-3-5/-3------------------------------|

Riff E
---------------------------------------------------------|
---------------------------------------------------------|
---------------------------------------------------------|
---------------------------------------------------------|
-4-4-4-4-------------------------------------------------|
-2-2-2-2--Just play this Chord for a while---------------|

Riff F
---------------------------------------------------------|
---------------------------------------------------------|
---------------------------------------------------------|
---------------------------------------------------------|
-22-8-7-5-7-5-7/-5-22-8-7-5-7-5-7/-5---------------------|
-00-6-5-3-5-3-5/-3-00-6-5-3-5-3-5/-3---------------------|

Riff G
---------------------------------------------------------|
---------------------------------------------------------|
---------------------------------------------------------|
-----------------------------9-9-9-9-9-9-9---------------|
-2-2-2-2---------------------7-7-7-7-7-7-7---------------|
-0-0-0-0-H
---------------------------------------------------------|
---------------------------------------------------------|
---------------------------------------------------------|
----------------------------------9-9-9-9-9-9-9----------|
-2-2------2-2-----5-8----2-2------7-7-7-7-7-7-7----------|
-0-0------0-0---0-3-6----0-0-----------------------------|