Entity Paradigm - Waqt Chords & Tabs

 

Waqt Chords & Tabs

Entity Paradigm Chords & Tabs

Version: 1 Type: Tab 0 ratings
1 star 2 stars 3 stars 4 stars 5 stars
comments

Waqt Tab

   
Waqt by Ep

The Chords are
      c5     G#5    D#5    A#5  A#5   F5       c5
1---------------------------------------------------------|
2---------------------------------------------------------|
3------5-------------8-----------1-----10-----------------|
4------5------6------8------8----3-----10------10---------|
5------3------6------6------8----3-----8-------10---------|
6-------------4-------------6------------------8----------|

confusion? well there is no difference between c5 and C5 or A#5 and a#5 as far as the 
and pitch go, its just that when u play them the way i have indicated its easier and more 
e.g. during the verse u hear a distinct sound of fingers being dragged on the strings..
well u'll get that here..

Lead :
1-------------------------------|---------------------------------------|
2-------------------------------|---------------------------------------|
3--7/8-7-5-3/5-3---3-3-3--5-5/7-|-8-7-5-3/5-7-3---3-3--3-10/12-10h12p10-|
4----------------5--------------|---------------5-----------------------|
5-------------------------------|---------------------------------------|
6-------------------------------|---------------------------------------|
[ Tab from: http://www.guitartabs.cc/tabs/e/entity_paradigm/waqt_tab.html ]
Rap:
This is how the story ...
1-------------------------|--------------------------|
2-------------------------|-----------6--------------|
3-------------------------|---8---7-------8---8------|
4----5---3---3h5---5---5--|-6---6---6---6---6--------|
5--3---3---3-----3---3----|--------------------------|
6-------------------------|--------------------------|
its a figure of...
1-------------------------|--------------------------|
2-------------------------|--------------------------|
3----5---7---5---5---5----|---3----------------------|
4--3---3---3---3---3------|-1---1--0-----0-1-01-0----|
5-------------------------|--------------------------|
6-------------------------|--------------------------|    2x

verse 1:
   c5            G#5
ek ehsas hai keh socha na tha
   D#5              A#5
waqt dhalta raha mein chalta raha
    c5           G#5
andheron mein bhi ik roshni thi
    D#5             A#5
oos roshni mein ghar jalta raha

Chorus:
   c5  D#5  A#5  A#5
to dil mera roye to kya
c5   G#5      D#5     A#5
waqt irado do toray to kya
c5        D#5  A#5  A#5
manzil to apni paye gay hum
c5     G#5    D#5        A#5
waqt ko apna banayein gay hum

post chorus:
c5        G#5
ho        ho
D#5       A#5
ho        ho....jo chahon wo ho

Verse 2
prechorus
chorus

Bridge:
c5           G#5
is dhool kay khumar say
 D#5        A#5
nashay mein rahein
c5            G#5
giray jin dyon pe parday
D#5      A#5
jalay na bhujay

outro:
D5        A#5
ho        ho
F5        c5
ho        ho mein chahoon woh ho

i have not added the last lead.. i'm sure its easy enough
thats it gimme feed back plus i dont have my guitar as i tab so there might be mistakes 
me lithium_s@hotmail.com
Comments