Entity Paradigm - Humein Aazma Chords & Tabs

 

Humein Aazma Chords & Tabs

Entity Paradigm Chords & Tabs

Version: 1 Type: Chords 0 ratings
1 star 2 stars 3 stars 4 stars 5 stars
comments

Humein Aazma Chords

   
official band site:www.entityparadigm.com
official fan site:www.hypestation.com
country:PAKISTAN

i dont know the name of these chords so plz try playing it with these names
ZS1:
E|----------0--------------------------------------------
B|----------3--------------------------------------------
G|----------0--------------------------------------------
D|----------2--------------------------------------------
A|----------3--------------------------------------------
E|-------------------------------------------------------


ZS2:
E|----------5--------------------------------------------
B|----------5--------------------------------------------
G|----------4--------------------------------------------
D|----------4--------------------------------------------
A|----------5--------------------------------------------
E|----------5--------------------------------------------


INTRO:  G       D            ZS1     
        D      ZS1           ZS1(mute low E)
        G       D            ZS1
        G       D            ZS1        ZS2    ZS1(mute low E)
               

E                       ZS1
mujh ko de woh jo tu na de saka
ZS1                  E
meri rooh ko na yoon sata
E                 ZS1
meri himmat ko tu barha
G
meray khoon mein woh rungg de jo rungg tu na de saka
[ Tab from: http://www.guitartabs.cc/tabs/e/entity_paradigm/humein_aazma_crd.html ]
G   D    ZS1  ZS1(mute low E)
G   D    ZS2  ZS1(mute low E)

E                 ZS1
meri aankhon mein dekh zara
ZS1                    E
aur phir mujhay tu yeh bata
E                  ZS1
hum donon mein hai woh kya
G
na rukk sakay na jhuk sakay aisa woh dum tu ne dia

G              D        G   D   ZS1      (mute low E) 
aaaaaaaaaaaaaaaa humein aa  z    maaaaaaaa
G              D      G   D    ZS1       G D
aaaaaaaaaaaaaaaa choo k   di   khaaaaaaaaaaa

G              D        G   D   ZS1      (mute low E) 
aaaaaaaaaaaaaaaa humein aa  z    maaaaaaaa
G              D      G   D    ZS1       G D
aaaaaaaaaaaaaaaa choo k   di   khaaaaaaaaaaa

now play these chords in the same rhythm of the chorus as it sounds like the chorus it self

G................D..................G..D.. ZS1..............(mute low E)
G.....ZS2..........D.........G..D..ZS1........G..D..........

this is how it sounds to me i can b wrong(iv tried C instead og ZS1 but im not
satisfied).for any suggestions or corrections plz contact at forthe_rock@hotmail.com
Comments