Entity Paradigm - Hamesha Chords & Tabs

 

Hamesha Chords & Tabs

Entity Paradigm Chords & Tabs

Version: 4 Type: Tab 0 ratings
1 star 2 stars 3 stars 4 stars 5 stars
comments

Hamesha Tab

Song : hamesha
tabbed by : Hamood ur Rehman
band : Ep

This pattern on which the lyrics take place is not very well heard in the original 
but you will soon
get the hang of it INSHALLAH. Here they are :..

tuning:- drop D
e\-------------------------------------------------\
B\-------------------------------------------------\
G\---------------------0---------------------------\
D\------------4----------4-------------------------\
A\-------2-------------------2---------------------\
D\---2-----------2---------------------------------\
                           silsilay.............

e\-------------------------------------------------\
B\-------------------------------------------------\
G\---------------------0---------------------------\
D\------------7----------7-------------------------\
A\-------5-------------------5---------------------\
D\---5-----------5---------------------------------\
                             torkay................

e\----------------------------------------------------------------------\
B\----------------------------------------------------------------------\
G\----------------------------------------------------------------------\
D\------------0----------7s-5----5s-4-------4s-2--2h-4------------------\
A\-------0--------------------------------------------------------------\
D\---0-----------0------------0----------0------------------------------\
                                   chal diyea kidher.............
[ Tab from: http://www.guitartabs.cc/tabs/e/entity_paradigm/hamesha_tab_ver_4.html ]
e\-------------------------------------------------\
B\-------------------------------------------------\
G\---------------------0---------------------------\
D\------------4----------4-------------------------\
A\-------2-------------------2---------------------\
D\---2-----------2---------------------------------\
                           ek heeeeeee.............

e\-------------------------------------------------\
B\-------------------------------------------------\
G\---------------------0---------------------------\
D\------------7----------7-------------------------\
A\-------5-------------------5---------------------\
D\---5-----------5---------------------------------\
                        mod  pay................

e\----------------------------------------------------------------------\
B\----------------------------------------------------------------------\
G\----------------------------------------------------------------------\
D\------------0----------7s-5----5s-4-------4s-2--2h-4------------------\
A\-------0--------------------------------------------------------------\
D\---0-----------0------------0----------0------------------------------\
                                   bass ek he nazar.............

& the rest of the lyrics of the song are based of this tabbing. It is a piece of cake believe me if your
singing balance is good and you remember the song pattern very well.

Firstly i was quite confused how 2 expose the tabbing of this song on which the lyrics take place.
i hope you guys wont face any difficulty in understanding it.

The distorted intro of this song is already on this page named as hamesha(intro) .That 
also tabbed by me .Try it out !!!
Any mistakes u caught or correction 2 be discussed you are free 2 mail me at
hamoodrehman708@hotmail.com.
my user name on ultimate-guitar is "beatmachine" .
 ''''KEEP ON ROCKIN'''''''
Comments