Entity Paradigm - Hamesha Chords & Tabs

 

Hamesha Chords & Tabs

Entity Paradigm Chords & Tabs

Version: 1 Type: Tab 0 ratings
1 star 2 stars 3 stars 4 stars 5 stars
comments

Hamesha Tab

----------------------------------------------------------------------------
			     HAMESHA - Entity paradigm
----------------------------------------------------------------------------
Tabbed by: uzair
Email: iamgr8haha@Hotmail.com

Intro (while the bass is playing -4---7---0- on the low C string)

d---------10-----9-------18--19--18--16--------
E-10--12------12------------------------19-----
F----------------------------------------------
C----------------------------------------------
G----------------------------------------------
C----------------------------------------------

[ Tab from: http://www.guitartabs.cc/tabs/e/entity_paradigm/hamesha_tab.html ]
d---------10-----9-----------------------------
E-10--12------12----------14---12--11--12------
F----------------------------------------------
C----------------------------------------------
G----------------------------------------------
C----------------------------------------------

then the main riff goes like

d----------------------------------------------
E----------------------------------------------
F----------------------------------------------
C---4-4----7-7----2-2---0-0--2-2---------------
G---4-4----7-7----2-2---0-0--2-2---------------
C---4-4----7-7----2-2---0-0--2-2---------------

this is basically the whole song..u can figure out the lead stuff by urself.
email me if u have any questions
Comments