Enthroned - Scared By Darkwinds Chords & Tabs

 

Scared By Darkwinds Chords & Tabs

Enthroned Chords & Tabs

Version: 1 Type: Tab 0 ratings
1 star 2 stars 3 stars 4 stars 5 stars
comments

Scared By Darkwinds Tab

   
                        
                        ENTHRONED-SCARED BY DARKWINDS
                        From the Album PROPHECIES OF PAGAN FIRE
                        Copyright 1995 Evil Omen (Osmose Productions)
                       
                        Version 1.0 - November 1998


Transcribed by: Zack Demianczyk(Malignant)
 email Zack at dio@nauticom.net, for questions or corrections

Visit my homepage at http://www.angelfire.com/ak2/MalignantTabs/index.html
(Malignant Tablature Dominion)

/     slide up
\     slide down
p     pull on
h     hammer on
~     vibrato
pm    .



Tuning: (E,A,D,G,B,E)

 
 play 6 times
|-----------------------------------------------------------------|
|-----------------------------------------------------------------|
|----------------999----------------------------------------------|
|----999101010999---999101010999------999101010999777999101010999-|
|-777------------------------------777----------------------------|
|-----------------------------------------------------------------|
|                                                                 |
|Keyboard arranged for guitar                                     |
|-----------------------------------------------------------------|
|-5-------------------------------6--5----------------------------|
|-----------------------------------------------------------------|
|-----------------------------------------------------------------|
|-----------------------------------------------------------------|
|-----------------------------------------------------------------|


|----------------------------------|
|----------------------------------|
|----------------------------------|
|----999101010999-----999101010999-|
|-777--------------777-------------|
|----------------------------------|
|                                  |
|----------------------------------|
|-3---5-----------8---------6------|
|----------------------------------|
|----------------------------------|
|----------------------------------|
|----------------------------------|



 play 8 times        . . .
|--------------------------|
|--------------------------|
|--------------------------|
|------2222233333----------|
|-00000----------------2-3-|
|--------------------3-----|


 play 4 times            . . .
|----------------------------------------------------------|
|----------------------------------------------------------|
|-2--222--2--222------------------2--222--2--222-----------|
|-2--222--2--222--3--333----------2--222--2--222----3------|
|-0--000--0--000--1--111----3-2---0--000--0--000----1----3-|
|-------------------------3------------------------------1-|


 play 4 times
|-----------------------------------------------|
|-----------------------------------------------|
|------------------2--222--2--222---------------|
|-----5------------2--222--2--222--33333--2-----|
|-3---3------3-2---0--000--0--000-----------3-2-|
|-1--------3------------------------------------|


 play 4 times
|----------------------------------------------------------------------------|
|----------------------------------------------------------------------------|
|----------------------------------------------------------------------------|
|----------------------------------------------------------------------------|
|----3331111333444333111333-----333111333444333111333----------4444333111333-|
|-000------------------------000-----------------------44444444--------------|


 play 4 times
|---------------------------------------------------------------|
|---------------------------------------------------------------|
|---------------------------------------------------------------|
|---------------------------------------------------------------|
|-----3322--22-----3322--22-----3322--22---77775533555333222233-|
|-0000----33---0000----33---0000----33--------------------------|

 
 play 7 times                                   . .
|---------------------------------------------------|
|---------------------------------------------------|
|---------------------------------------------------|
|---------------------------------------------------|
|-------2h3----------3p2----------2h3-----------4-3-|
|-00000-----4--11111-----4--00000-----4--11111--2-1-|

[ Tab from: http://www.guitartabs.cc/tabs/e/enthroned/scared_by_darkwinds_tab.html ]
play 4 times
 keyboard arranged for guitar
|------6--5----------------|
|---------------------5--6-|
|--------------4--5--------|
|--------------------------|
|--------------------------|
|--------------------------|
|                          |
|--------------------------|
|--------------------------|
|--------------------------|
|---------------------2--3-|
|-2------------2--3--------|
|-0------------------------|


 play 4 times
|------------------|
|------------------|
|-------------1----|
|-0--2--0--2-----2-|
|------------------|
|------------------|


play 4 times
 keyboard arranged for guitar
|------6--5----------------|
|---------------------5--6-|
|--------------4--5--------|
|--------------------------|
|--------------------------|
|--------------------------|
|                          |
|--------------------------|
|--------------------------|
|--------------------------|
|---------------------2--3-|
|-2------------2--3--------|
|-0------------------------|


 play 4 times
|------------------|
|------------------|
|-------------1----|
|-0--2--0--2-----2-|
|------------------|
|------------------|
|                  |
|------------------|
|------------------|
|-------------5----|
|-4--6--4--6-----6-|
|------------------|
|------------------|


 play 1 time
|----------------------------------------------------------------------|
|----------------------------------------------------------------------|
|------------------------------------5-------------5--4----------------|
|-2---------------3------------------5-------------5--4----------------|
|-2---------------3-----3----2-------3-------------3--2----------------|
|-0---------------1----------------------------------------------------|


  play 1 time
|----------------------------------------------------------------------|
|----------------------------------------------------------------------|
|------------------------------------5-------------5--4----------------|
|-2---------------3------------------5-------------5--4----------------|
|-2---------------3-----3----2-------3-------------3--2----------------|
|-0---------------1----------------------------------------------------|
|                                                                      |
|-0------2-3--2---------0-----2-0------0-2---3-5---7--7--5-----8---7-5-|
|----------------------------------------------------------------------|
|----------------------------------------------------------------------|
|----------------------------------------------------------------------|
|----------------------------------------------------------------------|
|----------------------------------------------------------------------|
  

 play 1 time
|----------------------------------------------------------------------|
|----------------------------------------------------------------------|
|------------------------------------5-------------5--4----------------|
|-2---------------3------------------5-------------5--4----------------|
|-2---------------3-----3----2-------3-------------3--2----------------|
|-0---------------1----------------------------------------------------|
|                                                                      |
|-15--12-12------------------------------------------------------------|
|-----------13-12~--12-10--10h12p10------------------------------------|
|-----------------------------------9~--7h9-11-9h11-12--12-10~--12-10~-|
|----------------------------------------------------------------------|
|----------------------------------------------------------------------|
|----------------------------------------------------------------------|


 play 2 times
|----------------------------------------------------------------------|
|----------------------------------------------------------------------|
|------------------------------------5-------------5--4----------------|
|-2---------------3------------------5-------------5--4----------------|
|-2---------------3-----3----2-------3-------------3--2----------------|
|-0---------------1----------------------------------------------------|



|-----|
|-----|
|-----|
|--2--|
|--2--|
|--0--|

This tab is not permitted or any others off my page to by posted anywhere without
asking me in head of time. For all the time it takes me to do some of these tabs please
ask me first, I would appreciate it, Zack Demianczyk (dio@nauticom.net)
Comments