Enter Shikari - Labyrinth Chords & Tabs

 

Enter Shikari Chords & Tabs

Version: 1 Type: Tab 0 ratings
1 star 2 stars 3 stars 4 stars 5 stars
comments

Labyrinth Tab

   
Hello, this is my first tab, and I have only figured out the intro to it at the moment. 
see that there is no other tabs on the net, so I decided to give it a go. I will add 
parts that I can work out.
------------------------------------------------------------------------------
			     Labyrinth - Enter Shikari INTRO
-------------------------------------------------------------------------------
Tabbed by: Danny Edwards
Email: danny_edwards@hotmail.co.uk

Tuning: E A D G B E (Standard)
[ Tab from: http://www.guitartabs.cc/tabs/e/enter_shikari/labyrinth_tab.html ]
e|---------------------------------------------------------------------------|
B|---------------------------------------------------------------------------|
G|---------------------------------------------------------------------------|
D|---xxx--11-x--7-7-----------4-----x-11-x-7-7-----------4-------------------|
A|---xxx--11-x--7-7--2-2--4-2-2-2---x-11-x-7-7--2-2--4-2-2-2-----------------|
E|---xxx--9--x--5-5--0-0--2-0-0-0---x-9--x-5-5--0-0--2-0-0-0-----------------|

e|---------------------------------------------------------------------------|
B|---------------------------------------------------------------------------|
G|---------------------------------------------------------------------------|
D|---xxx--11-x--7-7-----------4-----x-11-x-7-7-----------4-------------------|
A|---xxx--11-x--7-7--2-2--4-2-2-2---x-11-x-7-7--2-2--4-2-2-2-----------------|
E|---xxx--9--x--5-5--0-0--2-0-0-0---x-9--x-5-5--0-0--2-0-0-0-----------------|


| /  slide up
| \  slide down
| h  hammer-on
| p  pull-off
| ~  vibrato
| +  harmonic
| x  Mute note
===============================================================================
Comments