Enter Shikari - Antwerpen Chords & Tabs

 

Enter Shikari Chords & Tabs

Version: 1 Type: Tab 0 ratings
1 star 2 stars 3 stars 4 stars 5 stars
comments

Antwerpen Tab

PLEASE READ - Ok i have already submitted this once however I've had time to work on 
it and i feel this is a much more accuate tab, the other version needs taking down tbh. 
Any questions just hit me up on my profile.

enjoy x

Tuning - 1 Whole step down, then drop it to D (see below for correct string notes)

Key- x- muted note
     *- natural harmonic
     \/- slide
     h - hammer on
     p- pull off
     ph- pinched harmonic
     ~ - let the note ring

Intro/verse

d|----------------------------------------------------------------------------|
a|----------------------------------------------------------------------------|
f|----------------------------------------------------------------------------|
c|7-5-7-5-7/10\7-5-7-5-10-10-10-10-10-10-1-1-1-1-1-1-1-1-1--------------------|
g|7-5-7-5-7/10\7-5-7-5-10-10-10-10-10-10-1-1-1-1-1-1-1-1-1--5*----5p0h7p0h8p0-|
C|7-5-7-5-7/10\7-5-7-5-10-10-10-10-10-10-1-1-1-1-1-1-1-1-1--------------------|

PLEASE NOTE - listen to the track to get the proper strumming pattern for the 10 and 1
and also the fret hammer ons/ pull offs

d|------------------------------11----------|
a|---------------------------10-------------| then repeat opening riff
f|----------------------8h10----------------|
d|-888---7-5-7-5-7-5------------------------|
g|-888---7-5-7-5-7-5------------------------|
C|-888---7-5-7-5-7-5------------------------|


Once you have repeated the intro/verse riff it goes into this-
("I'm not making any sense....")
d|--------------------------------------|
a|--------------------------------------|
f|--------------------------------------|
d|-888---7-5-7-5-7-5--888--7-5-7-5-7-5--|
g|-888---7-5-7-5-7-5--888--7-5-7-5-7-5--|
C|-888---7-5-7-5-7-5--888--7-5-7-5-7-5--|

again listen to the track for the correct timing/strum pattern

syth/keyboard break down (i normally put on a bit of phaser aswell to make 
it more dramatic)

d|--------------------------------------------|
a|--------------------------------------------|
f|--------------------------------------------|
d|-7~-----------7~----5~----3~--0~--3---7~----|
g|-7~-----------7~----5~----3~--0~--3---7~----|
C|-7~-----------7~----5~----3~--0~--3---7~----|


"nah nah nah nah........."

[ Tab from: http://www.guitartabs.cc/tabs/e/enter_shikari/antwerpen_tab.html ]
d|-----------------------------------------------------------------------------------------|
a|-----------------------------------------------------------------------------------------|
f|-----------------------------------------------------------------------------------------|
c|7-5-7-5-7/10\7-5-7-5-10-10-10-10-10-10-0-0-0-0-0-0-3-3-3-3-3-3-101010-12-12-12-12-12-12--|
g|7-5-7-5-7/10\7-5-7-5-10-10-10-10-10-10-0-0-0-0-0-0-3-3-3-3-3-3-101010-12-12-12-12-12-12--|
C|7-5-7-5-7/10\7-5-7-5-10-10-10-10-10-10-0-0-0-0-0-0-3-3-3-3-3-3-101010-12-12-12-12-12-12--|


Breakdown part 1

d|-----------------------------|
a|--------10-ph8---------------|
f|-----------------------------|
d|-7-7-5-7-----------10p8------| x3
g|------------------------10---|
C|-----------------------------|


d|------------------------------------------------------------|
a|---------10-ph8---------------------------------------------|
f|------------------------------------------------------------|
d|-7-7-5-7-----------10p8-------------------------------------|
g|------------------------10--10-10-10-10-9-9-9-9-9-9-8-8-8-8-|
C|------------------------------------------------------------|

Breakdown part 2 (using the Tom Morello killswitch guitar technique,
                  Basicly have 1 pickup volume @ 0, and other on full
                  and simply switch between the two while tapping the
                  notes with your fret hand)

d|-----------------8-----------------------------8---------------------|
a|----10-8-10-8-10---10-8-10-10-10--10-8-10-8-10---10-8-101010101010---|
f|---------------------------------------------------------------------| x3
d|---------------------------------------------------------------------|
g|---------------------------------------------------------------------|
C|---------------------------------------------------------------------|

d|--------------8-----------------------------8---------------------------------------------|
a|-10-8-10-8-10---10-8-10-10-10--10-8-10-8-10---10-8-101010101010--7-7-7-7-6-6-6-6-5-5-5-5--|
f|------------------------------------------------------------------------------------------|
d|------------------------------------------------------------------------------------------|
g|------------------------------------------------------------------------------------------|
C|------------------------------------------------------------------------------------------|


Breakdown part 3

d|-------------------------------------------|
a|-------------------------------------------|
f|--------14--12~----------------------------|
d|--7-7---x---x-----12-10-7------------------|  x4
g|--7-7---12--10~---12-10-7------------------|
C|--7-7-------------12-10-7------------------|

d|------------------------------|
a|------------------------------|
f|------------------------------|
d|--5-5-5-5-5-4-4-4-4-3-3-3-3---|  x1
g|--5-5-5-5-5-4-4-4-4-3-3-3-3---|
C|--5-5-5-5-5-4-4-4-4-3-3-3-3---|


They go back and play the breakdown again, and finish on -
d|-------------------|
a|-------------------|
f|-------------------|
d|--5~--4~--3~---0---|
g|--5~--4~--3~---0---|
C|--5~--4~--3~---0---|



thats it, have fun! =] x
Comments