Enslaved - Eit Auga Til Mimir Chords & Tabs

 

Eit Auga Til Mimir Chords & Tabs

Enslaved Chords & Tabs

Version: 1 Type: Tab 0 ratings
1 star 2 stars 3 stars 4 stars 5 stars
comments

Eit Auga Til Mimir Tab

Artist            : enslaved
Album             : bloodhemn
Song              : eit auga til mimir

Transcribed by    : conan
Date              : 10-02-2002
E-mail            : cial6666@hotmail.com
URL               : 

Note              : 
Tuning            : Standard

this is a great song by one of the most original metal bands on the planet. this is my first tab
so excuse me if its confusing. ENJOY!!!!!!!!

[Intro 1]
e|-------------------------------------------------------------------------|
B|-------------------------------------------------------------------------|
G|----------------------------------------7--------------------------------|
D|-------------------------------------7----7------------------------------|
A|---7---5---7-----7---9---10---7---5----------3---2---3---5---------------|
E|--------------7----------------------------------------------------------|
double pick intro

[Intro 2]
e|-------------------------------------------------------------------------|
B|-------------------------------------------------------------------------|
G|----------------------------------------7--------------------------------|
D|-------------------------------------7----7------------------------------|
A|---7---5---7-----7---9---10---7---5----------3---2---0-------------------|
E|--------------7----------------------------------------------------------|


[Intro 3]
e|-------------------------------------------------------------------------|
B|-------------------------------------------------------------------------|
G|-----------------------------------------7-------------------------------|
D|---2----------------------------------7----7-----------------------------|
A|------2---------7---9---10---7---5----------(3---2---3---5)*-------------|
E|---------3---0-----------------------------------------------------------|
*2nd X use ending from intro 2

[riff 1]
e|-------------------------------------------------------------------------|
B|-------------------------------------------------------------------------|
G|-----------------8-------------------------------------------------------|
D|----------7---8----8--7---------7-----6--------6*------------------------|
A|---5---8-----------------5---8-----7-----7--6------7*--------------------|
E|-------------------------------------------------------------------------|
pick first 3 notes 1X then double pick the rest.  *play 4th repitition
[ Tab from: http://www.guitartabs.cc/tabs/e/enslaved/eit_auga_til_mimir_tab.html ]
[riff 2]
e|-------------------------------------------------------------------------|
B|-------------------------------------------------------------------------|
G|----7-----7\5--5--7-----7\5--5--7/8--8--8\7--7--7\5--5--5\4--4-----------|
D|----7-----7\5--5--7-----7\5--5--7/8--8--8\7--7--7\5--5--5\4--4-----------|
A|----5--5--5\3--3--5--5--5\3--3--5/6--6--6\5--5--5\3--3--3\2--2-----------|
E|-------------------------------------------------------------------------|
repeat 2X then play same pattern with low E as the bass string

[riff 3]
e|-------------------------------------------------------------------------|
B|-------------------------------------------------------------------------|
G|---7----------7----------7-----------------------5-8-7-------------------|
D|---7------7-8-7------3-5-7------7-8-101010101010-5-8-7-------------------|
A|---5-555------5-555------5-555-------------------3-6-5-------------------|
E|-------------------------------------------------------------------------|
at the end of the 4th repitition dont play last chord and go into riff 3

[riff 4]
e|-------------------------------------------------------------------------|
B|-------------------------------------------------------------------------|
G|---7--7--7/8--8--7--7-------3----7--7--7/8--5--5-------------------------|
D|---7--7--7/8--8--7--7-----3---3--7--7--7/8--5--5--3-----5----------------|
A|---5--5--5/6--6--5--5--3---------5--5--5/6--3--3----3-5------------------|
E|-------------------------------------------------------------------------|
play this riff under the solo as well

[riff 5]
e|-------------------------------------------------------------------------|
B|-------------------------------------------------------------------------|
G|---9---7---5---4---------------------------------------------------------|
D|---9---7---5---4---------------------------------------------------------|
A|---7---5---3---2---------------------------------------------------------|
E|-------------------------------------------------------------------------|
double pick

[fill 1]
e|-------------------------------------------------------------------------|
B|-------------------------------------------------------------------------|
G|---5--4--2---------------------------------------------------------------|
D|---5--4--2---------------------------------------------------------------|
A|---3--2--0---------------------------------------------------------------|
E|-------------------------------------------------------------------------|

Order
intro(1-3)2X
riff 1 4X
riff 2 4X
riff 3 4X
riff 1 4X
riff 4 8X
intro1
riff 5
intro3
intro(1-3)end w/fill 1

==========================================================================
 Tab created with Kastor's Guitar Tabulature Manager 3.0 (TabIt Quick 1.0)
          You can get it for FREE from >>www.inet.hr/~kpetak<<
       E-mail: kpetak@inet.hr, kastors@yahoo.com, kpetak@yahoo.com
==========================================================================
Comments