Ensiferum - Battle Song Chords & Tabs

 

Battle Song Chords & Tabs

Ensiferum Chords & Tabs

Version: 1 Type: Tab 0 ratings
1 star 2 stars 3 stars 4 stars 5 stars
comments

Battle Song Tab

   
Ensiferum
Battle Song
tabbed by: Martijn Wietsma (Darkenelf)
dalvanian@yahoo.com

Intro:
Riff A:
e|-------------------------------------------------------|
B|-------------------------------------------------------|
G|------------------------------------2------------------|
D|-------7---------7---------3--------2------------------|
A|-5-5-5----5-5-5-----1-1-1-----0-0-0--------------------|
E|-------------------------------------------------------|

e|-------------------------------------------------------|
B|-------------------------------------------------------|
G|-------------------------------------------------------|
D|--------7---------7---------3----------7---------------|
A|-5-5-5-----5-5-5-----1-1-1-------------7---------------|
E|--------------------------------5-5-5--5---------------|
                                                    (2x)
Riff B:
e|-------------------------------------------------------|
B|-------------------------------------------------------|
G|-------------------------------------------------------|
D|-------------------------------------------------------|
A|-7-----------------9-5---------------------------------|
E|-5-5-5-5-5-5-5-5-5-7-3---------------------------------|
     . . . . . . . .                                (4x)

Riff C:
e|-------------------------------------------------------|
B|-------------------------------------------------------|
G|-------------------7-7-7-7---9-5-7---------------------|
D|-7-----------------7-7-7-7---9-5-7---------------------|
A|-5-5-5-5-5-5-5-5-5-------------------------------------|
E|-------------------------------------------------------|
                                                    (4x)

Riff D:
e|-------------------------------------------------------|
B|-------------------------------------------------------|
G|-------------------------------------------------------|
D|-------------------------------------------------------|
A|-3---5-6---5---6-8---6-----10---8-6/8---6-5---3-3------|
E|-1---3-4---3---4-6---4------8---6-4/6---4-3---1-1------|

Riff E:
e|-------------------------------------------------------|
B|-------------------------------------------------------|
G|----------------------9--10-9p7h9--5h7--5p4------------|
D|-7-7h9h10--9--10p9-7-------------------------7---------|
A|-------------------------------------------------------|
E|-------------------------------------------------------|
                                                    (2x)
Riff F:
e|-------------------------------------------------------|
B|-------------------------------------------------------|
G|-------------------------------------------------------|
D|-------7---8p7p5h7----------3---------2h3-2h3----------|
A|-5-5-5---------------1-1-1-----0-0-0-------------------|
E|-------------------------------------------------------|
                                                    (4x)
[ Tab from: http://www.guitartabs.cc/tabs/e/ensiferum/battle_song_tab.html ]
Riff B:
e|-------------------------------------------------------|
B|-------------------------------------------------------|
G|-------------------------------------------------------|
D|-------------------------------------------------------|
A|-7-----------------9-5---------------------------------|
E|-5-5-5-5-5-5-5-5-5-7-3---------------------------------|
     . . . . . . . .                                (4x)

Riff C:
e|-------------------------------------------------------|
B|-------------------------------------------------------|
G|-------------------7-7-7-7---9-5-7---------------------|
D|-7-----------------7-7-7-7---9-5-7---------------------|
A|-5-5-5-5-5-5-5-5-5-------------------------------------|
E|-------------------------------------------------------|
                                                    (4x)
Riff G:
e|-------------------------------------------------------|
B|-------------------------------------------------------|
G|-------------------------------------------------------|
D|-12--10\7/8\5/7---10-9p7h9--5--7-7---------------------|
A|-------------------------------------------------------|
E|-------------------------------------------------------|

Riff E:
e|-------------------------------------------------------|
B|-------------------------------------------------------|
G|----------------------9--10-9p7h9--5h7--5p4------------|
D|-7-7h9h10--9--10p9-7-------------------------7---------|
A|-------------------------------------------------------|
E|-------------------------------------------------------|
                                                    (2x)
Riff H:
e|-------------------------------------------------------|
B|-------------------------------------------------------|
G|-------------------------------------------------------|
D|-8------------10--8------------------------------------|
A|---10-10-10----------10-10-10---12-8-------------------|
E|-------------------------------------------------------|
                                                    (3x)

e|-------------------------------------------------------|
B|-------------------------------------------------------|
G|-------------------------------------------------------|
D|-8-----------10--8------------12~----------------------|
A|---10-10-10---------10-10-10---------------------------|
E|-------------------------------------------------------|
                                                    (1x)

Riff E:
e|-------------------------------------------------------|
B|-------------------------------------------------------|
G|----------------------9--10-9p7h9--5h7--5p4------------|
D|-7-7h9h10--9--10p9-7-------------------------7---------|
A|-------------------------------------------------------|
E|-------------------------------------------------------|
                                                    (3x)
e|-------------------------------------------------------|
B|-------------------------------------------------------|
G|----------------------9--10-9p7h9--5h7--5p4-4h5p4----2-|
D|-7-7h9h10--9--10p9-7------------------------------5----|
A|-------------------------------------------------------|
E|-------------------------------------------------------|

Visit MetalTabs.com for more metal tablatur
Comments