Enrique Iglesias - Hero Chords & Tabs

 

Hero Chords & Tabs

Enrique Iglesias Chords & Tabs

Version: 7 Type: Tab 0 ratings
1 star 2 stars 3 stars 4 stars 5 stars
comments

Hero Tab

The radio version of Hero cuts the solo in half. So here's the complete solo from the live version. Enjoy. PEACE!
[ Tab from: http://www.guitartabs.cc/tabs/e/enrique_iglesias/hero_tab_ver_7.html ]
e---------------------------------------------------e
b---------------------------------------------------b
g---------------------------------------------------g
d-5-5-5-7-7/9--9-7/9-9-9-7-5-5--5-------------------d
a---------------------------------5-5/7~--7/8\7--5--a
e---------------------------------------------------e


e---------------------------------------------------e
b--------7----------7-----7-8-7---------------------b
g-5/7-7-7-7---7-7-7---7--7------7-----------------7-g
d-----------------------7---------7/9-7---7/9\5/7---d
a---------------------------------------------------a
e---------------------------------------------------e

Comments