Enrique Iglesias - Hero Chords & Tabs

 

Hero Chords & Tabs

Enrique Iglesias Chords & Tabs

Version: 4 Type: Tab 0 ratings
1 star 2 stars 3 stars 4 stars 5 stars
comments

Hero Tab

   
#----------------------------------PLEASE NOTE--------------------------------#
#This file is the author's own work and represents their interpretation of the#
#song. You may only use this file for private study, scholarship, or research.#
#-----------------------------------------------------------------------------#

Author/Artist: Enrique Iglesias
Title: Hero
Transcribed by: Martin Pinto-Bazurco Mendieta
Email: martin_pinto_b@yahoo.com

This is my first tab, hope you like it!

This song is easy and very nice. It can make chicks cry hehe. Listen to the song for the tempo.
Any suggestions/changes please let me know

~ - Let it sound
/ - Slide up
\ - Slide down

Standard tuning

Intro:
|---3-------3-------3-------3-------3-------3-------3--------------------------
|-----3-------3-------3-------3-------3-------3-------3------------------------
|-------0-------0-------0-------0-------0-------0-------2----------------------
|-------------------------------------------------0-------0--------------------
|---------------------------------3-------3------------------------------------
|-3-------3-------0-------0----------------------------------------------------
 
Verse 1:                                                                     
|---3-------3-------3-------3-------3-------3-------3-------3------------------
|-----3-------3-------3-------3-------3-------3-------3-------3----------------
|-------0-------0-------0-------0-------0-------0-------2-------2--------------
|-------------------------------------------------0-------0--------------------
|---------------------------------3-------3------------------------------------
|-3-------3-------0-------0----------------------------------------------------
                                                                              

|---3-------3-------3-------3-------3-------3-------3-------3------------------
|-----3-------3-------3-------3-------3-------3-------3-------3----------------
|-------0-------0-------0-------0-------0-------2-------0----------------------
|-----------------------------------------0------------------------------------
|---------------------------------3--------------------------------------------
|-3-------3-------0-------0-----------------------3-------3--------------------
 X2                                                                             

Chorus:

G      D              C      G       D              C      
I can be your Hero Baby..... I can kiss away the pain......

G          D              C    G         D               C
I will stand by you forever....You can take...my breath away...
[ Tab from: http://www.guitartabs.cc/tabs/e/enrique_iglesias/hero_tab_ver_4.html ]
Verse 2:
|---3-------3-------3-------3-------3-------3-------3-------3------------------
|-----3-------3-------3-------3-------3-------3-------3-------3----------------
|-------0-------0-------0-------0-------0-------0-------2-------2--------------
|-------------------------------------------------0-------0--------------------
|---------------------------------3-------3------------------------------------
|-3-------3-------0-------0----------------------------------------------------
                                                                              

|---3-------3-------3-------3-------3-------3-------3-------3------------------
|-----3-------3-------3-------3-------3-------3-------3-------3----------------
|-------0-------0-------0-------0-------0-------2-------0----------------------
|-----------------------------------------0------------------------------------
|---------------------------------3--------------------------------------------
|-3-------3-------0-------0-----------------------3-------3--------------------
   
Chorus:
                                                                           
G      D              C      G       D              C      
I can be your Hero Baby..... I can kiss away the pain......

G          D              C    G         D               C
I will stand by you forever....You can take...my breath away...

Solo:
e|-----------------------------------------------------------------------------------
A|-----------------------7---7-8-7---------------------------------------------------
D|-0-0----------5/7--7-7---7------7--------------------------------------------------
G|------7/9-9~----------------------9-\-7~--9\7--5-----------------------------------
B|-----------------------------------------------------------------------------------
E|-----------------------------------------------------------------------------------

Verse 3:

|---3-------3-------3-------3-------3-------3-------3-------3------------------
|-----3-------3-------3-------3-------3-------3-------3-------3----------------
|-------0-------0-------0-------0-------0-------0-------2-------2--------------
|-------------------------------------------------0-------0--------------------
|---------------------------------3-------3------------------------------------
|-3-------3-------0-------0----------------------------------------------------
                                                                              

|---3-------3-------3-------3-------3-------3-------3-------3------------------
|-----3-------3-------3-------3-------3-------3-------3-------3----------------
|-------0-------0-------0-------0-------0-------2-------0----------------------
|-----------------------------------------0------------------------------------
|---------------------------------3--------------------------------------------
|-3-------3-------0-------0-----------------------3-------3--------------------

Chorus:
Repeat til song fades out.....                                                                           
G      D              C      G       D              C      
I can be your Hero Baby..... I can kiss away the pain......

G          D              C    G         D               C
I will stand by you forever....You can take...my breath away...
Comments