Enrique Iglesias - Hero Chords & Tabs

 

Hero Chords & Tabs

Enrique Iglesias Chords & Tabs

Version: 2 Type: Tab 0 ratings
1 star 2 stars 3 stars 4 stars 5 stars
comments

Hero Tab

Enrique Iglesias, Hero.
 Tabbed by Willow, honeysuckleco@hotmail.com.
  
#----------------------------------PLEASE NOTE--------------------------------#
#This file is the author's own work and represents their interpretation of the#
#song. You may only use this file for private study, scholarship, or research.#
#-----------------------------------------------------------------------------#
#-- File created with Instab - http://www.pconline.com/~smcarey/instab.html --#
#-----------------------------------------------------------------------------#

Author/Artist: Enrique Iglesias
Title: Hero
Transcribed by: Willow
Email: Honeysuckleco@hotmail.com

Hey guys well the other tab i had was wrong i made 
A few mistakes but this one i promise is fixed...
[ Tab from: http://www.guitartabs.cc/tabs/e/enrique_iglesias/hero_tab_ver_2.html ]
First staff is played as the verse part, until the last
verse.
Second staff is the chorus and the last verse...

Have fun....

This is the verse...

-|---3----3-----3-----3-----3-----3-----3----3----
-|----0-----0-----0-----0-----0-----0----0-----0--
-|------------------------------------------------
-|------------------------------------------------
-|------------2-----2-----------------------------
-|-3----3-----------------0-----0-----3----3------
     And this part is the chorus...                                           

-|--3---2---0---
-|--0---3---1---
-|--0---2---0---
-|--0---0---2---
-|--2---0---3---
-|--3-------0---
                                                                              

 
:: Ultimate Guitar Archive :: 
http://www.ultimate-guitar.com 



Comments