Enrique Iglesias - Hero Chords & Tabs

 

Hero Chords & Tabs

Enrique Iglesias Chords & Tabs

Version: 10 Type: Tab 0 ratings
1 star 2 stars 3 stars 4 stars 5 stars
comments

Hero Tab

Here is the CORRECT COMPLETE SOLO if you wanna play it right.
**** I don't believe this is from the original version of Hero.  There were a couple a 
released around the same time... the 911 version, etc... This one is called I Can Be Your 
from LW .... the ORIGNAL VERSION has a much shorter solo! This one is much prettier****

[ Tab from: http://www.guitartabs.cc/tabs/e/enrique_iglesias/hero_tab_ver_10.html ]
e-------------------------------------------------------|e
b-------------------------------------------------------|b
g-------------------------------------------------------|g
d-5-5-5-7-7/9-9--7/9-9-9-7-5-5--------------------------|d
a---------------------------------5-5/7~--7h8p7-5-------|a
e-------------------------------------------------------|e

e-------------------------------------------------------|e
b----------7---------7----r7-8-7------------------------|b
g-r5/7-7-7--7--7-7-7---7--r7------7-----------------7---|g
d-r0----------------------r7--------7/9-7---9/5-5/7-----|d
a-------------------------------------------------------|a
e-------------------------------------------------------|e

~  = Vib
h  = hammer on
p  = pull off
/\ = slide
r  = rake strings w/ slight palm mute

l8ter!
Comments