Enrique Iglesias - Escape Chords & Tabs

 

Escape Chords & Tabs

Enrique Iglesias Chords & Tabs

Version: 4 Type: Tab

Escape Tab

   
Enrique Iglesias: Escape
------------------------
(I'm sure everything is 100% correct)

This is the main riff that is played through whole song on verses

   B        E        | G#m      F
E|-------------------|---------------------|
B|-------------------|---------------------|
G|------4---4---4----|------4---4---3------|
D|----4---4---2---2--|----------------4----|
A|-2-----------------|----6---6------------|
E|-------------------|-4----------2--------|


Chorus:

       B         E
If you feel like leavin'
G#m                    F#
I'm not gonna make you stay
    B              E
But soon you'll be finding
        G#m                       F#
You can run, you can hide but you can't escape my love

"solo" riff during chorus goes like this:
E|-----------------------------------------|
B|---12---12h11-7-----12-12-11--12/14------|
G|-----------------------------------------|
D|-----------------------------------------|
A|-----------------------------------------|
E|-----------------------------------------|

And there is also some sort of bridge:
[ Tab from: http://www.guitartabs.cc/tabs/e/enrique_iglesias/escape_tab_ver_4.html ]
        E            G#m           F#
You can run, you can hide, but you can't escape my love

        G#m          E             F#
You can run, you can hide, but you can't escape my love

These are all guitar parts that are included in this song. Which one goes
with which part of the song figure out by yourself.

===========Another Version==================================================

Enrique Iglesias - Escape

Hi everybody!

Here is the beginning of the song "escape" by Enrique Iglesias. I figured it out quite quickly.

	B	         E		G#m		F#
e-----------------------------------------------------------------------------------------------------|
b-----------------------------------------------------------------------------------------------------|
g-----------------------------------------------------------------------------------------------------|
d-------------------------9--------9-------9---------------------------6--------6--------------4------|
a--------------------9--------9-------7--------7-----------------6--------6------------------------4--|
e---------------7----------------------------------------------4-----------------------------2--------|