Enrique Iglesias - Dont Turn Out The Lights Chords & Tabs

 

Dont Turn Out The Lights Chords & Tabs

Enrique Iglesias Chords & Tabs

Version: 1 Type: Tab 0 ratings
1 star 2 stars 3 stars 4 stars 5 stars
comments

Dont Turn Out The Lights Tab

   
"Don't turn out the lights"
   by: Enrique Iglesias

I really hate pop music like this, but the harmonics got
my attention. Girls love this crap though, so whip out the ol'
acoustic, take a knee, and play this for your loved one.

ENJOY! ->

Here are the chords and fingerings for the song. The chord names are
not entirely correct but they are variations of the chords listed. For
instance, I happen to play G with the added third fret fingerings on
the high e and B strings. I also play Cadd9 with low E open, you do not
have to but what's the use of muting or string-skipping if you don't have
to?


Intro:

           G        Cadd9
e-|---3-------3-------3---|
B-|-----3-------3-----3---|
G-|-------0-------0---0---|
D-|-------------------2---| Repeat
A-|-------------------3---|
E-|---------3---------0---|


Chorus:

[ Tab from: http://www.guitartabs.cc/tabs/e/enrique_iglesias/dont_turn_out_the_lights_tab.html ]
      G         Cadd9
e-|---3-----------3---|--------------------|
B-|---3-----------3---|--------------------|
G-|---0---(2p0)---0---|------*9----*5------|
D-|---0-----------2---|---*5----*5----*5---| Repeat
A-|---2-----------3---|--------------------|
E-|---3-----------0---|--------------------|


Power chord version:


      D5  C5   G5
e-|------------------|--------------------|
B-|------------------|--------------------|
G-|---7---(5---------|------*9----*5------|
D-|---7-----3)---5---|---*5----*5----*5---| Repeat
A-|---5----------5---|--------------------|
E-|--------------3---|--------------------|


The asterisks indicate the use of natural harmonics. For those of you
who don't know how to do it, barely touch your finger to the string
over the indicated fret's fretwire. When pulled-off correctly is should
give you a nice sustained bell-like tone. The parentheses indicate the
notes that are left out, every other time you repeat.

The rest of the song is kinda too quiet to hear, atleast for me anyway.
But if you wanna cheat your way through it, the chords are:


      D Cadd9 G
e-|---2---3---3---|
B-|---3---3---3---|
G-|---2---0---0---| Sound right? Who knows, good enough for me.
D-|---0---2---0---|
A-|---0---3---2---|
E-|---0---0---3---|


That's it! Who cares how most of it goes. If it aint right, tab it out
yourself. All I care about's the HARMONICS! So HA!
Comments