Ennio Morricone - A Fistful Of Dollars Chords & Tabs

 

A Fistful Of Dollars Chords & Tabs

Ennio Morricone Chords & Tabs

Version: 1 Type: Tab 0 ratings
1 star 2 stars 3 stars 4 stars 5 stars
comments

A Fistful Of Dollars Tab

A Fistful of Dollars
by Ennio Morricone


Tablature by Aaron Slodov

e|---------------------------------------------------|
b|-------------5---6---8---6---5---3---1-------1---3-|
g|-----5---7-------------------------------2---------|
D|---------------------------------------------------|
A|---------------------------------------------------|
E|---------------------------------------------------|

e|---------------------------------------------------|
b|-------------5---6---8---6---5---3---1-------1-----|
g|-----5---7-------------------------------2-------2-|
D|---------------------------------------------------|
A|---------------------------------------------------|
E|---------------------------------------------------|
[ Tab from: http://www.guitartabs.cc/tabs/e/ennio_morricone/a_fistful_of_dollars_tab.html ]
e|-------------------------------------------------5-|
b|-------------5---6---8---6---5---3---5---6---8-----|
g|-----5---7-----------------------------------------|
D|---------------------------------------------------|
A|---------------------------------------------------|
E|---------------------------------------------------|

e|-----8---5------------9---5-----------------------|
b|-------------8---5------------8---5---------------|
g|---------------------------------------5---7------|
D|--------------------------------------------------|
A|--------------------------------------------------|
E|--------------------------------------------------|

e|--------------------------------------------------|
b|----------5---6------------------3----------------|
g|-----7----------------7----5----------------------|
D|--------------------------------------------------|
A|--------------------------------------------------|
E|--------------------------------------------------|
Comments