Engine Down - Castalia Chords & Tabs

 

Castalia Chords & Tabs

Engine Down Chords & Tabs

Version: 1 Type: Tab 0 ratings
1 star 2 stars 3 stars 4 stars 5 stars
comments

Castalia Tab

Castalia -by- Engine Down ...another new engine down tab

Intro - both Guitars distorted -  0:00

1--------------------|
2--------------------|
3-5-7-9----5-7-9-8---| (x2)
4-X-X-X----X-X-X-X---|
5-3-5-7----3-5-7-6---|
6--------------------|

Intro continued - 0:44

1-------------------------------|
2-------------------------------|
3-5-5-5-7-7-7-9-9-9-9-9-9-9-9---|
4-X-X-X-X-X-X-X-X-X-X-X-X-X-X---| (X3) - listen for exact strum pattern
5-3-3-3-5-5-5-7-7-7-7-7-7-7-7---|
6-------------------------------|

Verse - Both Guitars - 1:00

1-------------------------------------------------|
2-------------------------------------------------|
3-9-9-9-9-9-9-9-12-12-12-12-11-11-11-11-11-11-11--|
4-X-X-X-X-X-X-X--X--X--X--X--X--X--X--X--X--X--X--| (X4)
5-7-7-7-7-7-7-7-10-10-10-10-10--9--9--9--9--9--9--|
6-------------------------------------------------|

Next thing..dunno if its Chorus cuz it only does it once - 1:31

Guitar 1

1-------------------|
2-------------------|
3-------------------|
4-9-9-9---10-10-10--|
5-7-7-7---7--7--7---|
6-------------------|

Guitar 2

1----------------|
2----------------|
3-9-9-9---9-9-9--|
4-X-X-X---X-X-X--|
5-7-7-7---7-7-7--|
6----------------|

Next Part - 1:47

Guitar 1
[ Tab from: http://www.guitartabs.cc/tabs/e/engine_down/castalia_tab.html ]
1-------------------|
2-------------------|
3-------------------|
4-9-9-9---10-10-10--|
5-7-7-7---7--7--7---|
6-------------------|

Guitar 2 - Clean, no distortion

1---
2---
3-9-
4-9-  keep strumming
5-7-
6---

Next Part - Both Guitars Clean, No distortion - 2:04

1---
2---
3-9-
4-9-  keep strumming
5-7-
6---

At 2:45 One Guitar starts palm muting the above chord w/ lots of dist. and the other 
starts adding dist. to it

Next thing -2:52-

Both Guitars distorted

1-------------------|
2-------------------|
3-15-15-15--16------|
4-X--X--X---X-------|
5-13-13-13--14------|
6-------------------|

Then - 3:08-

1----------------------------|
2----------------------------|
3-15-15-15--REST-15-15-15----|
4-X--X--X---REST-X--X--X-----|
5-13-13-13--REST-13-13-13----|
6----------------------------|

Then - 3:16

Guitar 1
1----------------------------|
2----------------------------|
3-15-15-15--REST-15-15-15----|
4-X--X--X---REST-X--X--X-----|
5-13-13-13--REST-13-13-13----|
6----------------------------|

Guitar 2
1----
2----
3-16-
4-X-- keep strumming
5-14-
6----

Then 3:24-END Both Guitars

1-------------------|
2-------------------|
3-15-15-15--16------|
4-X--X--X---X-------|
5-13-13-13--14------|
6-------------------|
Comments