Engine Down - Brushes Chords & Tabs

 

Brushes Chords & Tabs

Engine Down Chords & Tabs

Version: 1 Type: Tab 0 ratings
1 star 2 stars 3 stars 4 stars 5 stars
comments

Brushes Tab

Tab-Brushes-by-Engine Down
Album: Under the Pretense of Present Tense
Tabber: sleepytimetrio / sleepytime_trio@hotmail.com


Intro - 0:47

1---3----3-----|
2--------------|
3-4--4--4--4---|  keep repepting
4--------------|
5--------------|
6--------------|

at -1:11- play this

1------------------|
2---5------5-------|
3-4---4--4---4-----|  (x2)
4------------------|
5------------------|
6------------------|

-1:16-

1---3----3-----|
2--------------|
3-4--4--4--4---|  (x2)
4--------------|
5--------------|
6--------------|

-1:21-

1------------------|
2---5------5-------|
3-4---4--4---4-----|  Keep repeting
4------------------|
5------------------|
6------------------|

Verse -1:44-

1----------------------|
2----------------------|
3----------------------|
4-----------12----9----|  Keep repeting
5-----10---------------|
6-0-0----0-------------|

at -1:59-

1----------------------|
2----------------------|
3-----------11---------|
4---------------9------|  play once
5-----10---------------|
6-0-0----0-------------|

-2:00-

1----------------------|
2----------------------|
3----------------------|
4-----------12----9----|  Keep repeting
5-----10---------------|
6-0-0----0-------------|

-2:14-
[ Tab from: http://www.guitartabs.cc/tabs/e/engine_down/brushes_tab.html ]
1----------------------|
2----------------------|
3-----------11---------|
4---------------9------|
5-----10---------------|
6-0-0----0-------------|

-2:15-

1-----------------------------------------|
2-----------------------------------------|
3-----------------------------------------|
4-----------------------------------------|
5-----10---10-12-10-----10---10-12-10-----|
6-0-0----0----------0-0----0--------------|

Repete all the verse riffs the same way for 2:19-2:57

Bridge -2:57- Guitars

Guitar 1

1-0-0-0-0-0-0-0-0---0-0-0-0-0-0-0-0---|
2-0-0-0-0-0-0-0-0---1-1-1-1-1-1-1-1---|
3-0-0-0-0-0-0-0-0---0-0-0-0-0-0-0-0---|
4-2-2-2-2-2-2-2-2---2-2-2-2-2-2-2-2---|
5-2-2-2-2-2-2-2-2---2-2-2-2-2-2-2-2---|
6-0-0-0-0-0-0-0-0---0-0-0-0-0-0-0-0---|

Guitar 2

1-0-0-0-0-0-0-0-0--------------------------|
2-0-0-0-0-0-0-0-0--------------------------|
3-0-0-0-0-0-0-0-0--------------------------|
4-2-2-2-2-2-2-2-2---9-9-9-12-10-10-10-10---|
5-2-2-2-2-2-2-2-2---9-9-9-12-10-10-10-10---|
6-0-0-0-0-0-0-0-0--------------------------|


Verse - 3:05 - Both Guitars

1-0--
2-0--
3-0--  Keep Strumming
4-2--
5-2--
6-0--

Play Brigde thing again -3:36-

Outro both guitars distorted -3:44-END

1-0--
2-0--
3-0--  Keep Strumming
4-2--
5-2--
6-0--
Comments