Enemies - Something To Lose Chords & Tabs

 

Something To Lose Chords & Tabs

Enemies Chords & Tabs

Version: 1 Type: Tab 0 ratings
1 star 2 stars 3 stars 4 stars 5 stars
comments

Something To Lose Tab

Enemies
Something to Lose

Intro (x = Strong pm)
|----------------
|----------------
|---5xxxx--555---
|---5xxxx--555---
|---3xxxx--333---
|----------------

|----------------------------|
|----------------------------|
|---5------3-----------------|  (x4)
|---5------3-----5-----6-----|
|---3------1-----5-----6-----|
|----------------3-----4-----|

Verse
|----------------------|
|----------------------|
|----5-------3---------| (x4)
|----5-------3--5------|
|----3-------1--5------|
|---------------3------|

|---------------------|
|---------------------|
|----5----------------| (x6)
|----5---------5------|
|----3---------5------|
|--------------3------|

Chorus
|----------------------------|
|----------------------------|
|---5------3-----------------|  (x4)
|---5------3-----5-----6-----|
|---3------1-----5-----6-----|
|----------------3-----4-----|

Verse Again
[ Tab from: http://www.guitartabs.cc/tabs/e/enemies/something_to_lose_tab.html ]
Bridge
|------------------------|
|------------------------|
|---3---------------5----| (couple times)
|---3--------5------5----|
|---1--------5------3----|
|------------3-----------|

|--------------------------------|
|--------------------------------|
|----3-x--------------------5----|
|----3-x----------5-x-------5----|
|----1-x----------5-x-------3----|
|-----------------3-x------------|

Outro
|----------------------------|
|----------------------------|
|---5------3-----------------|  (x4)
|---5------3-----5-----6-----|
|---3------1-----5-----6-----|
|----------------3-----4-----|

|------------------|
|------------------|
|---8------5-------| (couple times)
|---8------5-------|
|---6------3-------|
|------------------|

|------------|
|------------|
|---5555-----|
|---5555-----|
|---3333-----|
|------------|

By Giovanni Caligaris

If You don't like it.... WELL FUCK IT!!!!
Comments