Enemies - Palm Of My Hand Chords & Tabs

 

Palm Of My Hand Chords & Tabs

Enemies Chords & Tabs

Version: 1 Type: Tab 0 ratings
1 star 2 stars 3 stars 4 stars 5 stars
comments

Palm Of My Hand Tab

Enemies
Palm of My Hand

Intro
|------------------------------------------------|
|------------------------------------------------|
|------------------------------------------------|
|---2~~~---------9-----5-----9-----7---9--2~~~---|
|------------------------------------------------|
|------------------------------------------------|

|-------------------------------------------------|
|-------------------------------------------------|
|-----------------------9-----5------5-----7------|
|-----7------7/7--------9-----5------5-----7------|(x2)
|-----7------7/7-(x3)---7-----3------7-----5------|
|-----5------5/5----------------------------------|

Verse
|----------------------------------|
|----------------------------------|
|----------5-------5-----6/6-------|
|---7------5-------5-----6/6-(x4)--|
|---7------7-------3-----4/5-------|
|---5------------------------------|

|---------------------------------|
|---------------------------------|
|----9----------------------------|
|----9-----------x-x-x-x-x-x------|
|----7-----------x-x-x-x-x-x------|
|----------------x-x-x-x-x-x------|

Chorus
|---------------------------|
|---------------------------|
|---------9-----5-----7-----|
|---7-----9-----5-----7-----|
|---7-----7-----3-----5-----|
|---5-----------------------|

|-----------------------------------|
|-----------------------------------|
|------------9--------5-------7-----|
|---7--------9--------5-------7-----|
|---7--------7--------3-------5-----|
|---5-------------------------------|
[ Tab from: http://www.guitartabs.cc/tabs/e/enemies/palm_of_my_hand_tab.html ]
|-------------------------------------------------|
|-------------------------------------------------|
|-----------------------9-----5------5-----7------|
|-----7------7/7--------9-----5------5-----7------|
|-----7------7/7--------7-----3------7-----5------|
|-----5------5/5----------------------------------|

Bridge
|--------------------------------------------|
|--------------------------------------------|
|---9------5-------9------7------9-----------|
|---9------5-------9------7------9-----7-----|(x2) 
|---7------3-------7------5------7-----7-----|
|--------------------------------------5~~---|

Outro
|----------------------------------|
|----------------------------------|
|----------5-------5-----6/7-------|
|---7------5-------5-----6/7-(x4)--|
|---7------7-------3-----4/5-------|
|---5------------------------------|

|---------------------------|
|---------------------------|
|---------9-----5-----7-----|
|---7-----9-----5-----7-----|
|---7-----7-----3-----5-----|
|---5-----------------------|

|--------------------------|
|--------------------------|
|------------9--------5----|
|---7--------9--------5----|
|---7--------7--------3----|(x1)
|---5----------------------|


ORDER
Intro
Verse
Chorus
Verse
Bridge
Outro

The Enemies are an awesome band!!!, and this song is fucking crazy and also really easy to play.
Sometimes it gets kind of confusing...
If you have any problems please send me an email to giovannicaligaris@hotmail.com
To check more about The Enemies go to www.enemies.net or www.lookoutrecords.com

DON'T LIKE IT..... FUCK IT

Giovanni Caligaris

Comments